  0
SECTION
  2
HEADER
  9
$ACADVER
  1
AC1006
  9
$INSBASE
 10
4195.397145
 20
2801.179239
 30
0.0
  9
$EXTMIN
 10
4195.397145
 20
2801.179239
  9
$EXTMAX
 10
6583.040867
 20
4489.584442
  9
$LIMMIN
 10
4195.397145
 20
2801.179239
  9
$LIMMAX
 10
6583.040867
 20
4489.584442
  9
$VIEWCTR
 10
5389.219006
 20
3645.381841
  9
$VIEWSIZE
 40
1688.405204
  9
$SNAPMODE
 70
     0
  9
$SNAPUNIT
 10
1.0
 20
1.0
  9
$SNAPBASE
 10
0.0
 20
0.0
  9
$SNAPANG
 50
0.0
  9
$SNAPSTYLE
 70
     0
  9
$SNAPISOPAIR
 70
     0
  9
$GRIDMODE
 70
     0
  9
$GRIDUNIT
 10
0.0
 20
0.0
  9
$ORTHOMODE
 70
     0
  9
$REGENMODE
 70
     1
  9
$FILLMODE
 70
     1
  9
$QTEXTMODE
 70
     0
  9
$DRAGMODE
 70
     2
  9
$LTSCALE
 40
15.000000
  9
$OSMODE
 70
     0
  9
$ATTMODE
 70
     1
  9
$TEXTSIZE
 40
0.2
  9
$TRACEWID
 40
0.05
  9
$TEXTSTYLE
  7
STANDARD
  9
$CLAYER
  8
CSLAYER3
  9
$CELTYPE
  6
BYLAYER
  9
$CECOLOR
 62
   256
  9
$DIMSCALE
 40
1.0
  9
$DIMASZ
 40
0.18
  9
$DIMEXO
 40
0.0625
  9
$DIMDLI
 40
0.38
  9
$DIMRND
 40
0.0
  9
$DIMDLE
 40
0.0
  9
$DIMEXE
 40
0.18
  9
$DIMTP
 40
0.0
  9
$DIMTM
 40
0.0
  9
$DIMTXT
 40
0.18
  9
$DIMCEN
 40
0.09
  9
$DIMTSZ
 40
0.0
  9
$DIMTOL
 70
     0
  9
$DIMLIM
 70
     0
  9
$DIMTIH
 70
     1
  9
$DIMTOH
 70
     1
  9
$DIMSE1
 70
     0
  9
$DIMSE2
 70
     0
  9
$DIMTAD
 70
     0
  9
$DIMZIN
 70
     0
  9
$DIMBLK
  1

  9
$LUNITS
 70
     2
  9
$LUPREC
 70
     4
  9
$AXISMODE
 70
     0
  9
$AXISUNIT
 10
0.0
 20
0.0
  9
$SKETCHINC
 40
0.1
  9
$FILLETRAD
 40
0.0
  9
$AUNITS
 70
     0
  9
$AUPREC
 70
     0
  9
$MENU
  1
ACAD
  9
$ELEVATION
 40
0.0
  9
$THICKNESS
 40
0.0
  9
$VIEWDIR
 10
0.0
 20
0.0
 30
1.0
  9
$LIMCHECK
 70
     0
  9
$BLIPMODE
 70
     1
  9
$CHAMFERA
 40
0.0
  9
$CHAMFERB
 40
0.0
  9
$FASTZOOM
 70
     1
  9
$SKPOLY
 70
     0
  9
$TDCREATE
 40
2453281.000000
  9
$TDUPDATE
 40
2453281.000000
  9
$TDINDWG
 40
0.0
  9
$TDUSRTIMER
 40
0.0
  9
$USRTIMER
 70
     1
  9
$ANGBASE
 50
0.0
  9
$ANGDIR
 70
     0
  9
$PDMODE
 70
     0
  9
$PDSIZE
 40
0.0
  9
$PLINEWID
 40
0.0
  9
$COORDS
 70
     0
  9
$USERI1
 70
     0
  9
$USERI2
 70
     0
  9
$USERI3
 70
     0
  9
$USERI4
 70
     0
  9
$USERI5
 70
     0
  9
$USERR1
 40
0.0
  9
$USERR2
 40
0.0
  9
$USERR3
 40
0.0
  9
$USERR4
 40
0.0
  9
$USERR5
 40
0.0
  0
ENDSEC
  0
SECTION
  2
TABLES
  0
TABLE
  2
LTYPE
 70
     9
  0
LTYPE
  2
CONTINUOUS
 70
    64
  3
Solid line
 72
    65
 73
     0
 40
0.0
  0
LTYPE
  2
DASHED
 70
    64
  3
__ __ __ __ __ __ __ __ __ __ __ __ __ __ __
 72
    65
 73
     2
 40
0.75
 49
0.5
 49
-0.25
  0
LTYPE
  2
HIDDEN
 70
    64
  3
_ _ _ _ _ _ _ _ _ _ _ _ _ _ _ _ _ _ _ _ _ _ _
 72
    65
 73
     2
 40
0.375
 49
0.25
 49
-0.125
  0
LTYPE
  2
DOT
 70
    64
  3
...............................................
 72
    65
 73
     2
 40
0.25
 49
0.0
 49
-0.25
  0
LTYPE
  2
DASHDOT
 70
    64
  3
__ . __ . __ . __ . __ . __ . __ . __ . __ . __
 72
    65
 73
     4
 40
1.0
 49
0.5
 49
-0.25
 49
0.0
 49
-0.25
  0
LTYPE
  2
DIVIDE
 70
    64
  3
__ . . __ . . __ . . __ . . __ . . __ . . __
 72
    65
 73
     6
 40
1.25
 49
0.5
 49
-0.25
 49
0.0
 49
-0.25
 49
0.0
 49
-0.25
  0
LTYPE
  2
CENTER
 70
    64
  3
____ _ ____ _ ____ _ ____ _ ____ _ ____ _ ____ 
 72
    65
 73
     4
 40
2.0
 49
1.25
 49
-0.25
 49
0.25
 49
-0.25
  0
LTYPE
  2
PHANTOM
 70
    64
  3
______  __  __  ______  __  __  ______  __  __ 
 72
    65
 73
     6
 40
2.5
 49
1.25
 49
-0.25
 49
0.25
 49
-0.25
 49
0.25
 49
-0.25
  0
LTYPE
  2
BORDER
 70
    64
  3
__ __ . __ __ . __ __ . __ __ . __ __ . __ __ .
 72
    65
 73
     6
 40
1.75
 49
0.5
 49
-0.25
 49
0.5
 49
-0.25
 49
0.0
 49
-0.25
  0
ENDTAB
  0
TABLE
  2
LAYER
 70
    16
  0
LAYER
  2
CSLAYER1
 70
    64
 62
     7
  6
CONTINUOUS
  0
LAYER
  2
CSLAYER2
 70
    64
 62
     7
  6
CONTINUOUS
  0
LAYER
  2
CSLAYER3
 70
    64
 62
     7
  6
CONTINUOUS
  0
LAYER
  2
CSLAYER4
 70
    64
 62
     7
  6
CONTINUOUS
  0
LAYER
  2
CSLAYER5
 70
    64
 62
     7
  6
CONTINUOUS
  0
LAYER
  2
CSLAYER6
 70
    64
 62
     7
  6
CONTINUOUS
  0
LAYER
  2
CSLAYER7
 70
    64
 62
     7
  6
CONTINUOUS
  0
LAYER
  2
CSLAYER8
 70
    64
 62
     7
  6
CONTINUOUS
  0
LAYER
  2
CSLAYER9
 70
    64
 62
     7
  6
CONTINUOUS
  0
LAYER
  2
CSLAYER10
 70
    64
 62
     7
  6
CONTINUOUS
  0
LAYER
  2
CSLAYER11
 70
    64
 62
     7
  6
CONTINUOUS
  0
LAYER
  2
CSLAYER12
 70
    64
 62
     7
  6
CONTINUOUS
  0
LAYER
  2
CSLAYER13
 70
    64
 62
     7
  6
CONTINUOUS
  0
LAYER
  2
CSLAYER14
 70
    64
 62
     7
  6
CONTINUOUS
  0
LAYER
  2
CSLAYER15
 70
    64
 62
     7
  6
CONTINUOUS
  0
LAYER
  2
CSLAYER16
 70
    64
 62
     7
  6
CONTINUOUS
  0
ENDTAB
  0
TABLE
  2
STYLE
 70
     1
  0
STYLE
  2
FX_FONT
 70
     0
 40
1.0
 41
1.0
 50
0.0
 71
     0
 42
1.0
  3
monotxt
  4
bigfont
  0
ENDTAB
  0
TABLE
  2
VIEW
 70
     0
  0
ENDTAB
  0
ENDSEC
  0
SECTION
  2
BLOCKS
  0
BLOCK
  8
CSLAYER1
  2
BLKF0000
 70
   64
 10
0.0
 20
0.0
 30
0.0
  0
CIRCLE
  8
CSLAYER3
  6
CONTINUOUS
 62
     3
 10
5195.515850
 20
3885.743922
 40
10.000000
  0
LINE
  8
CSLAYER3
  6
CONTINUOUS
 62
     3
 10
5185.524574
 20
3885.326316
 11
5195.515850
 21
3885.326316
  0
LINE
  8
CSLAYER3
  6
CONTINUOUS
 62
     3
 10
5185.518218
 20
3885.526316
 11
5195.515850
 21
3885.526316
  0
LINE
  8
CSLAYER3
  6
CONTINUOUS
 62
     3
 10
5185.515866
 20
3885.726316
 11
5195.515850
 21
3885.726316
  0
LINE
  8
CSLAYER3
  6
CONTINUOUS
 62
     3
 10
5195.515850
 20
3885.926316
 11
5205.514187
 21
3885.926316
  0
LINE
  8
CSLAYER3
  6
CONTINUOUS
 62
     3
 10
5195.515850
 20
3886.126316
 11
5205.508536
 21
3886.126316
  0
LINE
  8
CSLAYER3
  6
CONTINUOUS
 62
     3
 10
5195.515850
 20
3886.326316
 11
5205.498877
 21
3886.326316
  0
LINE
  8
CSLAYER3
  6
CONTINUOUS
 62
     3
 10
5195.515850
 20
3886.526316
 11
5205.485196
 21
3886.526316
  0
LINE
  8
CSLAYER3
  6
CONTINUOUS
 62
     3
 10
5195.515850
 20
3886.726316
 11
5205.467478
 21
3886.726316
  0
LINE
  8
CSLAYER3
  6
CONTINUOUS
 62
     3
 10
5195.515850
 20
3886.926316
 11
5205.445701
 21
3886.926316
  0
LINE
  8
CSLAYER3
  6
CONTINUOUS
 62
     3
 10
5195.515850
 20
3887.126316
 11
5205.419839
 21
3887.126316
  0
LINE
  8
CSLAYER3
  6
CONTINUOUS
 62
     3
 10
5195.515850
 20
3887.326316
 11
5205.389858
 21
3887.326316
  0
LINE
  8
CSLAYER3
  6
CONTINUOUS
 62
     3
 10
5195.515850
 20
3887.526316
 11
5205.355722
 21
3887.526316
  0
LINE
  8
CSLAYER3
  6
CONTINUOUS
 62
     3
 10
5195.515850
 20
3887.726316
 11
5205.317386
 21
3887.726316
  0
LINE
  8
CSLAYER3
  6
CONTINUOUS
 62
     3
 10
5195.515850
 20
3887.926316
 11
5205.274803
 21
3887.926316
  0
LINE
  8
CSLAYER3
  6
CONTINUOUS
 62
     3
 10
5195.515850
 20
3888.126316
 11
5205.227915
 21
3888.126316
  0
LINE
  8
CSLAYER3
  6
CONTINUOUS
 62
     3
 10
5195.515850
 20
3888.326316
 11
5205.176660
 21
3888.326316
  0
LINE
  8
CSLAYER3
  6
CONTINUOUS
 62
     3
 10
5195.515850
 20
3888.526316
 11
5205.120968
 21
3888.526316
  0
LINE
  8
CSLAYER3
  6
CONTINUOUS
 62
     3
 10
5195.515850
 20
3888.726316
 11
5205.060761
 21
3888.726316
  0
LINE
  8
CSLAYER3
  6
CONTINUOUS
 62
     3
 10
5195.515850
 20
3888.926316
 11
5204.995954
 21
3888.926316
  0
LINE
  8
CSLAYER3
  6
CONTINUOUS
 62
     3
 10
5195.515850
 20
3889.126316
 11
5204.926451
 21
3889.126316
  0
LINE
  8
CSLAYER3
  6
CONTINUOUS
 62
     3
 10
5195.515850
 20
3889.326316
 11
5204.852148
 21
3889.326316
  0
LINE
  8
CSLAYER3
  6
CONTINUOUS
 62
     3
 10
5195.515850
 20
3889.526316
 11
5204.772928
 21
3889.526316
  0
LINE
  8
CSLAYER3
  6
CONTINUOUS
 62
     3
 10
5195.515850
 20
3889.726316
 11
5204.688665
 21
3889.726316
  0
LINE
  8
CSLAYER3
  6
CONTINUOUS
 62
     3
 10
5195.515850
 20
3889.926316
 11
5204.599218
 21
3889.926316
  0
LINE
  8
CSLAYER3
  6
CONTINUOUS
 62
     3
 10
5195.515850
 20
3890.126316
 11
5204.504433
 21
3890.126316
  0
LINE
  8
CSLAYER3
  6
CONTINUOUS
 62
     3
 10
5195.515850
 20
3890.326316
 11
5204.404138
 21
3890.326316
  0
LINE
  8
CSLAYER3
  6
CONTINUOUS
 62
     3
 10
5195.515850
 20
3890.526316
 11
5204.298145
 21
3890.526316
  0
LINE
  8
CSLAYER3
  6
CONTINUOUS
 62
     3
 10
5195.515850
 20
3890.726316
 11
5204.186245
 21
3890.726316
  0
LINE
  8
CSLAYER3
  6
CONTINUOUS
 62
     3
 10
5195.515850
 20
3890.926316
 11
5204.068206
 21
3890.926316
  0
LINE
  8
CSLAYER3
  6
CONTINUOUS
 62
     3
 10
5195.515850
 20
3891.126316
 11
5203.943770
 21
3891.126316
  0
LINE
  8
CSLAYER3
  6
CONTINUOUS
 62
     3
 10
5195.515850
 20
3891.326316
 11
5203.812649
 21
3891.326316
  0
LINE
  8
CSLAYER3
  6
CONTINUOUS
 62
     3
 10
5195.515850
 20
3891.526316
 11
5203.674522
 21
3891.526316
  0
LINE
  8
CSLAYER3
  6
CONTINUOUS
 62
     3
 10
5195.515850
 20
3891.726316
 11
5203.529024
 21
3891.726316
  0
LINE
  8
CSLAYER3
  6
CONTINUOUS
 62
     3
 10
5195.515850
 20
3891.926316
 11
5203.375749
 21
3891.926316
  0
LINE
  8
CSLAYER3
  6
CONTINUOUS
 62
     3
 10
5195.515850
 20
3892.126316
 11
5203.214230
 21
3892.126316
  0
LINE
  8
CSLAYER3
  6
CONTINUOUS
 62
     3
 10
5195.515850
 20
3892.326316
 11
5203.043937
 21
3892.326316
  0
LINE
  8
CSLAYER3
  6
CONTINUOUS
 62
     3
 10
5195.515850
 20
3892.526316
 11
5202.864260
 21
3892.526316
  0
LINE
  8
CSLAYER3
  6
CONTINUOUS
 62
     3
 10
5195.515850
 20
3892.726316
 11
5202.674493
 21
3892.726316
  0
LINE
  8
CSLAYER3
  6
CONTINUOUS
 62
     3
 10
5195.515850
 20
3892.926316
 11
5202.473811
 21
3892.926316
  0
LINE
  8
CSLAYER3
  6
CONTINUOUS
 62
     3
 10
5195.515850
 20
3893.126316
 11
5202.261238
 21
3893.126316
  0
LINE
  8
CSLAYER3
  6
CONTINUOUS
 62
     3
 10
5195.515850
 20
3893.326316
 11
5202.035612
 21
3893.326316
  0
LINE
  8
CSLAYER3
  6
CONTINUOUS
 62
     3
 10
5195.515850
 20
3893.526316
 11
5201.795527
 21
3893.526316
  0
LINE
  8
CSLAYER3
  6
CONTINUOUS
 62
     3
 10
5195.515850
 20
3893.726316
 11
5201.539253
 21
3893.726316
  0
LINE
  8
CSLAYER3
  6
CONTINUOUS
 62
     3
 10
5195.515850
 20
3893.926316
 11
5201.264626
 21
3893.926316
  0
LINE
  8
CSLAYER3
  6
CONTINUOUS
 62
     3
 10
5195.515850
 20
3894.126316
 11
5200.968874
 21
3894.126316
  0
LINE
  8
CSLAYER3
  6
CONTINUOUS
 62
     3
 10
5195.515850
 20
3894.326316
 11
5200.648346
 21
3894.326316
  0
LINE
  8
CSLAYER3
  6
CONTINUOUS
 62
     3
 10
5195.515850
 20
3894.526316
 11
5200.298062
 21
3894.526316
  0
LINE
  8
CSLAYER3
  6
CONTINUOUS
 62
     3
 10
5195.515850
 20
3894.726316
 11
5199.910915
 21
3894.726316
  0
LINE
  8
CSLAYER3
  6
CONTINUOUS
 62
     3
 10
5195.515850
 20
3894.926316
 11
5199.476108
 21
3894.926316
  0
LINE
  8
CSLAYER3
  6
CONTINUOUS
 62
     3
 10
5195.515850
 20
3895.126316
 11
5198.975717
 21
3895.126316
  0
LINE
  8
CSLAYER3
  6
CONTINUOUS
 62
     3
 10
5195.515850
 20
3895.326316
 11
5198.375522
 21
3895.326316
  0
LINE
  8
CSLAYER3
  6
CONTINUOUS
 62
     3
 10
5195.515850
 20
3895.526316
 11
5197.590643
 21
3895.526316
  0
LINE
  8
CSLAYER3
  6
CONTINUOUS
 62
     3
 10
5195.515850
 20
3895.726316
 11
5196.108984
 21
3895.726316
  0
LINE
  8
CSLAYER3
  6
CONTINUOUS
 62
     3
 10
5185.534940
 20
3885.126316
 11
5195.515850
 21
3885.126316
  0
LINE
  8
CSLAYER3
  6
CONTINUOUS
 62
     3
 10
5185.549330
 20
3884.926316
 11
5195.515850
 21
3884.926316
  0
LINE
  8
CSLAYER3
  6
CONTINUOUS
 62
     3
 10
5185.567761
 20
3884.726316
 11
5195.515850
 21
3884.726316
  0
LINE
  8
CSLAYER3
  6
CONTINUOUS
 62
     3
 10
5185.590255
 20
3884.526316
 11
5195.515850
 21
3884.526316
  0
LINE
  8
CSLAYER3
  6
CONTINUOUS
 62
     3
 10
5185.616840
 20
3884.326316
 11
5195.515850
 21
3884.326316
  0
LINE
  8
CSLAYER3
  6
CONTINUOUS
 62
     3
 10
5185.647550
 20
3884.126316
 11
5195.515850
 21
3884.126316
  0
LINE
  8
CSLAYER3
  6
CONTINUOUS
 62
     3
 10
5185.682422
 20
3883.926316
 11
5195.515850
 21
3883.926316
  0
LINE
  8
CSLAYER3
  6
CONTINUOUS
 62
     3
 10
5185.721501
 20
3883.726316
 11
5195.515850
 21
3883.726316
  0
LINE
  8
CSLAYER3
  6
CONTINUOUS
 62
     3
 10
5185.764839
 20
3883.526316
 11
5195.515850
 21
3883.526316
  0
LINE
  8
CSLAYER3
  6
CONTINUOUS
 62
     3
 10
5185.812491
 20
3883.326316
 11
5195.515850
 21
3883.326316
  0
LINE
  8
CSLAYER3
  6
CONTINUOUS
 62
     3
 10
5185.864522
 20
3883.126316
 11
5195.515850
 21
3883.126316
  0
LINE
  8
CSLAYER3
  6
CONTINUOUS
 62
     3
 10
5185.921003
 20
3882.926316
 11
5195.515850
 21
3882.926316
  0
LINE
  8
CSLAYER3
  6
CONTINUOUS
 62
     3
 10
5185.982013
 20
3882.726316
 11
5195.515850
 21
3882.726316
  0
LINE
  8
CSLAYER3
  6
CONTINUOUS
 62
     3
 10
5186.047640
 20
3882.526316
 11
5195.515850
 21
3882.526316
  0
LINE
  8
CSLAYER3
  6
CONTINUOUS
 62
     3
 10
5186.117980
 20
3882.326316
 11
5195.515850
 21
3882.326316
  0
LINE
  8
CSLAYER3
  6
CONTINUOUS
 62
     3
 10
5186.193140
 20
3882.126316
 11
5195.515850
 21
3882.126316
  0
LINE
  8
CSLAYER3
  6
CONTINUOUS
 62
     3
 10
5186.273238
 20
3881.926316
 11
5195.515850
 21
3881.926316
  0
LINE
  8
CSLAYER3
  6
CONTINUOUS
 62
     3
 10
5186.358403
 20
3881.726316
 11
5195.515850
 21
3881.726316
  0
LINE
  8
CSLAYER3
  6
CONTINUOUS
 62
     3
 10
5186.448778
 20
3881.526316
 11
5195.515850
 21
3881.526316
  0
LINE
  8
CSLAYER3
  6
CONTINUOUS
 62
     3
 10
5186.544520
 20
3881.326316
 11
5195.515850
 21
3881.326316
  0
LINE
  8
CSLAYER3
  6
CONTINUOUS
 62
     3
 10
5186.645804
 20
3881.126316
 11
5195.515850
 21
3881.126316
  0
LINE
  8
CSLAYER3
  6
CONTINUOUS
 62
     3
 10
5186.752821
 20
3880.926316
 11
5195.515850
 21
3880.926316
  0
LINE
  8
CSLAYER3
  6
CONTINUOUS
 62
     3
 10
5186.865785
 20
3880.726316
 11
5195.515850
 21
3880.726316
  0
LINE
  8
CSLAYER3
  6
CONTINUOUS
 62
     3
 10
5186.984931
 20
3880.526316
 11
5195.515850
 21
3880.526316
  0
LINE
  8
CSLAYER3
  6
CONTINUOUS
 62
     3
 10
5187.110522
 20
3880.326316
 11
5195.515850
 21
3880.326316
  0
LINE
  8
CSLAYER3
  6
CONTINUOUS
 62
     3
 10
5187.242852
 20
3880.126316
 11
5195.515850
 21
3880.126316
  0
LINE
  8
CSLAYER3
  6
CONTINUOUS
 62
     3
 10
5187.382249
 20
3879.926316
 11
5195.515850
 21
3879.926316
  0
LINE
  8
CSLAYER3
  6
CONTINUOUS
 62
     3
 10
5187.529085
 20
3879.726316
 11
5195.515850
 21
3879.726316
  0
LINE
  8
CSLAYER3
  6
CONTINUOUS
 62
     3
 10
5187.683777
 20
3879.526316
 11
5195.515850
 21
3879.526316
  0
LINE
  8
CSLAYER3
  6
CONTINUOUS
 62
     3
 10
5187.846800
 20
3879.326316
 11
5195.515850
 21
3879.326316
  0
LINE
  8
CSLAYER3
  6
CONTINUOUS
 62
     3
 10
5188.018698
 20
3879.126316
 11
5195.515850
 21
3879.126316
  0
LINE
  8
CSLAYER3
  6
CONTINUOUS
 62
     3
 10
5188.200097
 20
3878.926316
 11
5195.515850
 21
3878.926316
  0
LINE
  8
CSLAYER3
  6
CONTINUOUS
 62
     3
 10
5188.391722
 20
3878.726316
 11
5195.515850
 21
3878.726316
  0
LINE
  8
CSLAYER3
  6
CONTINUOUS
 62
     3
 10
5188.594422
 20
3878.526316
 11
5195.515850
 21
3878.526316
  0
LINE
  8
CSLAYER3
  6
CONTINUOUS
 62
     3
 10
5188.809202
 20
3878.326316
 11
5195.515850
 21
3878.326316
  0
LINE
  8
CSLAYER3
  6
CONTINUOUS
 62
     3
 10
5189.037264
 20
3878.126316
 11
5195.515850
 21
3878.126316
  0
LINE
  8
CSLAYER3
  6
CONTINUOUS
 62
     3
 10
5189.280063
 20
3877.926316
 11
5195.515850
 21
3877.926316
  0
LINE
  8
CSLAYER3
  6
CONTINUOUS
 62
     3
 10
5189.539397
 20
3877.726316
 11
5195.515850
 21
3877.726316
  0
LINE
  8
CSLAYER3
  6
CONTINUOUS
 62
     3
 10
5189.817521
 20
3877.526316
 11
5195.515850
 21
3877.526316
  0
LINE
  8
CSLAYER3
  6
CONTINUOUS
 62
     3
 10
5190.117340
 20
3877.326316
 11
5195.515850
 21
3877.326316
  0
LINE
  8
CSLAYER3
  6
CONTINUOUS
 62
     3
 10
5190.442698
 20
3877.126316
 11
5195.515850
 21
3877.126316
  0
LINE
  8
CSLAYER3
  6
CONTINUOUS
 62
     3
 10
5190.798878
 20
3876.926316
 11
5195.515850
 21
3876.926316
  0
LINE
  8
CSLAYER3
  6
CONTINUOUS
 62
     3
 10
5191.193492
 20
3876.726316
 11
5195.515850
 21
3876.726316
  0
LINE
  8
CSLAYER3
  6
CONTINUOUS
 62
     3
 10
5191.638255
 20
3876.526316
 11
5195.515850
 21
3876.526316
  0
LINE
  8
CSLAYER3
  6
CONTINUOUS
 62
     3
 10
5192.153009
 20
3876.326316
 11
5195.515850
 21
3876.326316
  0
LINE
  8
CSLAYER3
  6
CONTINUOUS
 62
     3
 10
5192.776935
 20
3876.126316
 11
5195.515850
 21
3876.126316
  0
LINE
  8
CSLAYER3
  6
CONTINUOUS
 62
     3
 10
5193.614636
 20
3875.926316
 11
5195.515850
 21
3875.926316
  0
ENDBLK
  8
0
  0
BLOCK
  8
CSLAYER1
  2
BLKF0001
 70
   64
 10
0.0
 20
0.0
 30
0.0
  0
LINE
  8
CSLAYER3
  6
CONTINUOUS
 62
     7
 10
5016.286186
 20
3899.593922
 11
5028.893434
 21
3899.593922
  0
LINE
  8
CSLAYER3
  6
CONTINUOUS
 62
     7
 10
5010.506868
 20
3890.243922
 11
5010.506868
 21
3881.243922
  0
LINE
  8
CSLAYER3
  6
CONTINUOUS
 62
     7
 10
5036.506868
 20
3897.061041
 11
5036.506868
 21
3874.426803
  0
LINE
  8
CSLAYER3
  6
CONTINUOUS
 62
     7
 10
5016.286186
 20
3871.893922
 11
5028.893434
 21
3871.893922
  0
LINE
  8
CSLAYER3
  6
CONTINUOUS
 62
     7
 10
4998.506868
 20
3887.328922
 11
5010.506868
 21
3887.328922
  0
LINE
  8
CSLAYER3
  6
CONTINUOUS
 62
     7
 10
4998.506868
 20
3884.158922
 11
5010.506868
 21
3884.158922
  0
LINE
  8
CSLAYER3
  6
CONTINUOUS
 62
     7
 10
4998.506868
 20
3887.328922
 11
4998.506868
 21
3884.158922
  0
LINE
  8
CSLAYER3
  6
CONTINUOUS
 62
     7
 10
5028.893434
 20
3899.593922
 11
5028.893434
 21
3871.893922
  0
LINE
  8
CSLAYER3
  6
CONTINUOUS
 62
     7
 10
5028.893434
 20
3899.593922
 11
5028.893434
 21
3871.893922
  0
LINE
  8
CSLAYER3
  6
CONTINUOUS
 62
     7
 10
5028.893434
 20
3899.593922
 11
5028.893434
 21
3871.893922
  0
LINE
  8
CSLAYER3
  6
CONTINUOUS
 62
     7
 10
5028.612166
 20
3899.593922
 11
5028.612166
 21
3871.893922
  0
LINE
  8
CSLAYER3
  6
CONTINUOUS
 62
     7
 10
5016.286186
 20
3899.593922
 11
5016.286186
 21
3871.893922
  0
LINE
  8
CSLAYER3
  6
CONTINUOUS
 62
     7
 10
5016.286186
 20
3899.593922
 11
5012.506868
 21
3894.849891
  0
LINE
  8
CSLAYER3
  6
CONTINUOUS
 62
     7
 10
5012.506868
 20
3894.849891
 11
5012.506868
 21
3876.637953
  0
LINE
  8
CSLAYER3
  6
CONTINUOUS
 62
     7
 10
5012.506868
 20
3885.743922
 11
5010.506868
 21
3885.743922
  0
LINE
  8
CSLAYER3
  6
CONTINUOUS
 62
     7
 10
5012.506868
 20
3890.243922
 11
5010.506868
 21
3890.243922
  0
LINE
  8
CSLAYER3
  6
CONTINUOUS
 62
     7
 10
5016.286186
 20
3871.893922
 11
5016.286186
 21
3899.593922
  0
LINE
  8
CSLAYER3
  6
CONTINUOUS
 62
     7
 10
5016.286186
 20
3871.893922
 11
5012.506868
 21
3876.637953
  0
LINE
  8
CSLAYER3
  6
CONTINUOUS
 62
     7
 10
5012.506868
 20
3881.243922
 11
5010.506868
 21
3881.243922
  0
LINE
  8
CSLAYER3
  6
CONTINUOUS
 62
     7
 10
5028.893434
 20
3899.593922
 11
5036.506868
 21
3897.061041
  0
LINE
  8
CSLAYER3
  6
CONTINUOUS
 62
     7
 10
5028.893434
 20
3871.893922
 11
5036.506868
 21
3874.426803
  0
ENDBLK
  8
0
  0
BLOCK
  8
CSLAYER1
  2
BLKF0002
 70
   64
 10
0.0
 20
0.0
 30
0.0
  0
LINE
  8
CSLAYER3
  6
CONTINUOUS
 62
     3
 10
5135.500224
 20
3183.489738
 11
5135.500224
 21
3147.489738
  0
LINE
  8
CSLAYER3
  6
CONTINUOUS
 62
     3
 10
5138.500224
 20
3183.489738
 11
5138.500224
 21
3147.489738
  0
ARC
  8
CSLAYER3
  6
CONTINUOUS
 62
     3
 10
5131.538092
 20
3128.589865
 40
55.042661
 50
85.872112
 51
115.649405
  0
ARC
  8
CSLAYER3
  6
CONTINUOUS
 62
     3
 10
5114.092535
 20
3163.892058
 40
15.673951
 50
114.020871
 51
174.149555
  0
ARC
  8
CSLAYER3
  6
CONTINUOUS
 62
     3
 10
5131.538092
 20
3202.389610
 40
55.042661
 50
244.350595
 51
274.127888
  0
ARC
  8
CSLAYER3
  6
CONTINUOUS
 62
     3
 10
5114.092535
 20
3167.087417
 40
15.673951
 50
185.850445
 51
245.979129
  0
LINE
  8
CSLAYER3
  6
CONTINUOUS
 62
     3
 10
5318.500224
 20
3165.489738
 11
5164.025033
 21
3181.826095
  0
ARC
  8
CSLAYER3
  6
CONTINUOUS
 62
     3
 10
5132.474792
 20
2883.489738
 40
300.000000
 50
83.963185
 51
90.000000
  0
LINE
  8
CSLAYER3
  6
CONTINUOUS
 62
     3
 10
5318.500224
 20
3165.489738
 11
5164.025033
 21
3149.153380
  0
ARC
  8
CSLAYER3
  6
CONTINUOUS
 62
     3
 10
5132.474792
 20
3447.489738
 40
300.000000
 50
270.000000
 51
276.036815
  0
LINE
  8
CSLAYER3
  6
CONTINUOUS
 62
     3
 10
5321.515850
 20
3168.187552
 11
5164.340535
 21
3184.809459
  0
LINE
  8
CSLAYER3
  6
CONTINUOUS
 62
     3
 10
5318.500224
 20
3165.489738
 11
5164.025033
 21
3181.826095
  0
ARC
  8
CSLAYER3
  6
CONTINUOUS
 62
     3
 10
5132.474792
 20
2883.489738
 40
303.000000
 50
83.963185
 51
90.000000
  0
ARC
  8
CSLAYER3
  6
CONTINUOUS
 62
     3
 10
5131.538092
 20
3128.589865
 40
58.042661
 50
85.872112
 51
115.649405
  0
ARC
  8
CSLAYER3
  6
CONTINUOUS
 62
     3
 10
5114.092535
 20
3163.892058
 40
18.673951
 50
114.020871
 51
174.149555
  0
ARC
  8
CSLAYER3
  6
CONTINUOUS
 62
     3
 10
5132.474792
 20
3447.489738
 40
303.000000
 50
270.000000
 51
276.036815
  0
ARC
  8
CSLAYER3
  6
CONTINUOUS
 62
     3
 10
5131.538092
 20
3202.389610
 40
58.042661
 50
244.350595
 51
274.127888
  0
ARC
  8
CSLAYER3
  6
CONTINUOUS
 62
     3
 10
5114.092535
 20
3167.087417
 40
18.673951
 50
185.850445
 51
245.979129
  0
LINE
  8
CSLAYER3
  6
CONTINUOUS
 62
     3
 10
5321.515850
 20
3162.791923
 11
5164.340535
 21
3146.170016
  0
LINE
  8
CSLAYER3
  6
CONTINUOUS
 62
     3
 10
5651.515850
 20
3315.183941
 11
5651.515850
 21
3107.183941
  0
LINE
  8
CSLAYER3
  6
CONTINUOUS
 62
     3
 10
5006.515850
 20
3200.183941
 11
5006.515850
 21
3136.142190
  0
LINE
  8
CSLAYER3
  6
CONTINUOUS
 62
     3
 10
5759.931144
 20
3107.183941
 11
5057.302133
 21
3107.183941
  0
LINE
  8
CSLAYER3
  6
CONTINUOUS
 62
     3
 10
5651.515850
 20
3315.183941
 11
5639.795353
 21
3315.183941
  0
LINE
  8
CSLAYER3
  6
CONTINUOUS
 62
     3
 10
5621.362646
 20
3302.945081
 11
5595.624655
 21
3241.817352
  0
ARC
  8
CSLAYER3
  6
CONTINUOUS
 62
     3
 10
5031.515850
 20
3200.183941
 40
25.000000
 50
90.000000
 51
180.000000
  0
LINE
  8
CSLAYER3
  6
CONTINUOUS
 62
     3
 10
5219.515850
 20
3225.183941
 11
5031.515850
 21
3225.183941
  0
LINE
  8
CSLAYER3
  6
CONTINUOUS
 62
     3
 10
5331.515850
 20
3260.183941
 11
5563.326561
 21
3223.821477
  0
ARC
  8
CSLAYER3
  6
CONTINUOUS
 62
     3
 10
5318.491114
 20
3025.038415
 40
235.505970
 50
86.829620
 51
105.114349
  0
ARC
  8
CSLAYER3
  6
CONTINUOUS
 62
     3
 10
5274.975685
 20
3188.160454
 40
66.682320
 50
105.564034
 51
146.273998
  0
ARC
  8
CSLAYER3
  6
CONTINUOUS
 62
     3
 10
5069.311233
 20
3227.173084
 40
120.588610
 50
244.820876
 51
264.284591
  0
ARC
  8
CSLAYER3
  6
CONTINUOUS
 62
     3
 10
5026.515850
 20
3136.142190
 40
20.000000
 50
180.000000
 51
244.820876
  0
ARC
  8
CSLAYER3
  6
CONTINUOUS
 62
     3
 10
5639.795353
 20
3295.183941
 40
20.000000
 50
90.000000
 51
157.166346
  0
ARC
  8
CSLAYER3
  6
CONTINUOUS
 62
     3
 10
5567.975594
 20
3253.459062
 40
30.000000
 50
261.085073
 51
337.166346
  0
LINE
  8
CSLAYER3
  6
CONTINUOUS
 62
     3
 10
5715.231167
 20
3315.183941
 11
5651.515850
 21
3315.183941
  0
LINE
  8
CSLAYER3
  6
CONTINUOUS
 62
     3
 10
5779.147616
 20
3132.727154
 11
5729.643520
 21
3304.341351
  0
ARC
  8
CSLAYER3
  6
CONTINUOUS
 62
     3
 10
5759.931144
 20
3127.183941
 40
20.000000
 50
-90.000000
 51
16.090816
  0
ARC
  8
CSLAYER3
  6
CONTINUOUS
 62
     3
 10
5715.231167
 20
3300.183941
 40
15.000000
 50
16.090816
 51
90.000000
  0
LINE
  8
CSLAYER3
  6
CONTINUOUS
 62
     3
 10
5634.515850
 20
3170.183941
 11
5651.515850
 21
3184.806308
  0
LINE
  8
CSLAYER3
  6
CONTINUOUS
 62
     3
 10
5634.515850
 20
3165.183941
 11
5651.515850
 21
3150.561574
  0
LINE
  8
CSLAYER3
  6
CONTINUOUS
 62
     3
 10
5321.515850
 20
3168.187552
 11
5321.515850
 21
3162.791923
  0
LINE
  8
CSLAYER3
  6
CONTINUOUS
 62
     3
 10
5634.515850
 20
3170.183941
 11
5583.515850
 21
3170.183941
  0
LINE
  8
CSLAYER3
  6
CONTINUOUS
 62
     3
 10
5634.515850
 20
3165.183941
 11
5583.515850
 21
3165.183941
  0
LINE
  8
CSLAYER3
  6
CONTINUOUS
 62
     3
 10
5583.515850
 20
3170.183941
 11
5583.515850
 21
3165.183941
  0
LINE
  8
CSLAYER3
  6
CONTINUOUS
 62
     3
 10
5634.515850
 20
3170.183941
 11
5634.515850
 21
3165.183941
  0
CIRCLE
  8
CSLAYER3
  6
CONTINUOUS
 62
     3
 10
5195.515850
 20
3165.183941
 40
10.000000
  0
LINE
  8
CSLAYER3
  6
CONTINUOUS
 62
     3
 10
5185.524574
 20
3164.766335
 11
5195.515850
 21
3164.766335
  0
LINE
  8
CSLAYER3
  6
CONTINUOUS
 62
     3
 10
5185.518218
 20
3164.966335
 11
5195.515850
 21
3164.966335
  0
LINE
  8
CSLAYER3
  6
CONTINUOUS
 62
     3
 10
5185.515866
 20
3165.166335
 11
5195.515850
 21
3165.166335
  0
LINE
  8
CSLAYER3
  6
CONTINUOUS
 62
     3
 10
5195.515850
 20
3165.366335
 11
5205.514187
 21
3165.366335
  0
LINE
  8
CSLAYER3
  6
CONTINUOUS
 62
     3
 10
5195.515850
 20
3165.566335
 11
5205.508536
 21
3165.566335
  0
LINE
  8
CSLAYER3
  6
CONTINUOUS
 62
     3
 10
5195.515850
 20
3165.766335
 11
5205.498877
 21
3165.766335
  0
LINE
  8
CSLAYER3
  6
CONTINUOUS
 62
     3
 10
5195.515850
 20
3165.966335
 11
5205.485196
 21
3165.966335
  0
LINE
  8
CSLAYER3
  6
CONTINUOUS
 62
     3
 10
5195.515850
 20
3166.166335
 11
5205.467478
 21
3166.166335
  0
LINE
  8
CSLAYER3
  6
CONTINUOUS
 62
     3
 10
5195.515850
 20
3166.366335
 11
5205.445701
 21
3166.366335
  0
LINE
  8
CSLAYER3
  6
CONTINUOUS
 62
     3
 10
5195.515850
 20
3166.566335
 11
5205.419839
 21
3166.566335
  0
LINE
  8
CSLAYER3
  6
CONTINUOUS
 62
     3
 10
5195.515850
 20
3166.766335
 11
5205.389858
 21
3166.766335
  0
LINE
  8
CSLAYER3
  6
CONTINUOUS
 62
     3
 10
5195.515850
 20
3166.966335
 11
5205.355722
 21
3166.966335
  0
LINE
  8
CSLAYER3
  6
CONTINUOUS
 62
     3
 10
5195.515850
 20
3167.166335
 11
5205.317386
 21
3167.166335
  0
LINE
  8
CSLAYER3
  6
CONTINUOUS
 62
     3
 10
5195.515850
 20
3167.366335
 11
5205.274803
 21
3167.366335
  0
LINE
  8
CSLAYER3
  6
CONTINUOUS
 62
     3
 10
5195.515850
 20
3167.566335
 11
5205.227915
 21
3167.566335
  0
LINE
  8
CSLAYER3
  6
CONTINUOUS
 62
     3
 10
5195.515850
 20
3167.766335
 11
5205.176660
 21
3167.766335
  0
LINE
  8
CSLAYER3
  6
CONTINUOUS
 62
     3
 10
5195.515850
 20
3167.966335
 11
5205.120968
 21
3167.966335
  0
LINE
  8
CSLAYER3
  6
CONTINUOUS
 62
     3
 10
5195.515850
 20
3168.166335
 11
5205.060761
 21
3168.166335
  0
LINE
  8
CSLAYER3
  6
CONTINUOUS
 62
     3
 10
5195.515850
 20
3168.366335
 11
5204.995954
 21
3168.366335
  0
LINE
  8
CSLAYER3
  6
CONTINUOUS
 62
     3
 10
5195.515850
 20
3168.566335
 11
5204.926451
 21
3168.566335
  0
LINE
  8
CSLAYER3
  6
CONTINUOUS
 62
     3
 10
5195.515850
 20
3168.766335
 11
5204.852148
 21
3168.766335
  0
LINE
  8
CSLAYER3
  6
CONTINUOUS
 62
     3
 10
5195.515850
 20
3168.966335
 11
5204.772928
 21
3168.966335
  0
LINE
  8
CSLAYER3
  6
CONTINUOUS
 62
     3
 10
5195.515850
 20
3169.166335
 11
5204.688665
 21
3169.166335
  0
LINE
  8
CSLAYER3
  6
CONTINUOUS
 62
     3
 10
5195.515850
 20
3169.366335
 11
5204.599218
 21
3169.366335
  0
LINE
  8
CSLAYER3
  6
CONTINUOUS
 62
     3
 10
5195.515850
 20
3169.566335
 11
5204.504433
 21
3169.566335
  0
LINE
  8
CSLAYER3
  6
CONTINUOUS
 62
     3
 10
5195.515850
 20
3169.766335
 11
5204.404138
 21
3169.766335
  0
LINE
  8
CSLAYER3
  6
CONTINUOUS
 62
     3
 10
5195.515850
 20
3169.966335
 11
5204.298145
 21
3169.966335
  0
LINE
  8
CSLAYER3
  6
CONTINUOUS
 62
     3
 10
5195.515850
 20
3170.166335
 11
5204.186245
 21
3170.166335
  0
LINE
  8
CSLAYER3
  6
CONTINUOUS
 62
     3
 10
5195.515850
 20
3170.366335
 11
5204.068206
 21
3170.366335
  0
LINE
  8
CSLAYER3
  6
CONTINUOUS
 62
     3
 10
5195.515850
 20
3170.566335
 11
5203.943770
 21
3170.566335
  0
LINE
  8
CSLAYER3
  6
CONTINUOUS
 62
     3
 10
5195.515850
 20
3170.766335
 11
5203.812649
 21
3170.766335
  0
LINE
  8
CSLAYER3
  6
CONTINUOUS
 62
     3
 10
5195.515850
 20
3170.966335
 11
5203.674522
 21
3170.966335
  0
LINE
  8
CSLAYER3
  6
CONTINUOUS
 62
     3
 10
5195.515850
 20
3171.166335
 11
5203.529024
 21
3171.166335
  0
LINE
  8
CSLAYER3
  6
CONTINUOUS
 62
     3
 10
5195.515850
 20
3171.366335
 11
5203.375749
 21
3171.366335
  0
LINE
  8
CSLAYER3
  6
CONTINUOUS
 62
     3
 10
5195.515850
 20
3171.566335
 11
5203.214230
 21
3171.566335
  0
LINE
  8
CSLAYER3
  6
CONTINUOUS
 62
     3
 10
5195.515850
 20
3171.766335
 11
5203.043937
 21
3171.766335
  0
LINE
  8
CSLAYER3
  6
CONTINUOUS
 62
     3
 10
5195.515850
 20
3171.966335
 11
5202.864260
 21
3171.966335
  0
LINE
  8
CSLAYER3
  6
CONTINUOUS
 62
     3
 10
5195.515850
 20
3172.166335
 11
5202.674493
 21
3172.166335
  0
LINE
  8
CSLAYER3
  6
CONTINUOUS
 62
     3
 10
5195.515850
 20
3172.366335
 11
5202.473811
 21
3172.366335
  0
LINE
  8
CSLAYER3
  6
CONTINUOUS
 62
     3
 10
5195.515850
 20
3172.566335
 11
5202.261238
 21
3172.566335
  0
LINE
  8
CSLAYER3
  6
CONTINUOUS
 62
     3
 10
5195.515850
 20
3172.766335
 11
5202.035612
 21
3172.766335
  0
LINE
  8
CSLAYER3
  6
CONTINUOUS
 62
     3
 10
5195.515850
 20
3172.966335
 11
5201.795527
 21
3172.966335
  0
LINE
  8
CSLAYER3
  6
CONTINUOUS
 62
     3
 10
5195.515850
 20
3173.166335
 11
5201.539253
 21
3173.166335
  0
LINE
  8
CSLAYER3
  6
CONTINUOUS
 62
     3
 10
5195.515850
 20
3173.366335
 11
5201.264626
 21
3173.366335
  0
LINE
  8
CSLAYER3
  6
CONTINUOUS
 62
     3
 10
5195.515850
 20
3173.566335
 11
5200.968874
 21
3173.566335
  0
LINE
  8
CSLAYER3
  6
CONTINUOUS
 62
     3
 10
5195.515850
 20
3173.766335
 11
5200.648346
 21
3173.766335
  0
LINE
  8
CSLAYER3
  6
CONTINUOUS
 62
     3
 10
5195.515850
 20
3173.966335
 11
5200.298062
 21
3173.966335
  0
LINE
  8
CSLAYER3
  6
CONTINUOUS
 62
     3
 10
5195.515850
 20
3174.166335
 11
5199.910915
 21
3174.166335
  0
LINE
  8
CSLAYER3
  6
CONTINUOUS
 62
     3
 10
5195.515850
 20
3174.366335
 11
5199.476108
 21
3174.366335
  0
LINE
  8
CSLAYER3
  6
CONTINUOUS
 62
     3
 10
5195.515850
 20
3174.566335
 11
5198.975717
 21
3174.566335
  0
LINE
  8
CSLAYER3
  6
CONTINUOUS
 62
     3
 10
5195.515850
 20
3174.766335
 11
5198.375522
 21
3174.766335
  0
LINE
  8
CSLAYER3
  6
CONTINUOUS
 62
     3
 10
5195.515850
 20
3174.966335
 11
5197.590643
 21
3174.966335
  0
LINE
  8
CSLAYER3
  6
CONTINUOUS
 62
     3
 10
5195.515850
 20
3175.166335
 11
5196.108984
 21
3175.166335
  0
LINE
  8
CSLAYER3
  6
CONTINUOUS
 62
     3
 10
5185.534940
 20
3164.566335
 11
5195.515850
 21
3164.566335
  0
LINE
  8
CSLAYER3
  6
CONTINUOUS
 62
     3
 10
5185.549330
 20
3164.366335
 11
5195.515850
 21
3164.366335
  0
LINE
  8
CSLAYER3
  6
CONTINUOUS
 62
     3
 10
5185.567761
 20
3164.166335
 11
5195.515850
 21
3164.166335
  0
LINE
  8
CSLAYER3
  6
CONTINUOUS
 62
     3
 10
5185.590255
 20
3163.966335
 11
5195.515850
 21
3163.966335
  0
LINE
  8
CSLAYER3
  6
CONTINUOUS
 62
     3
 10
5185.616840
 20
3163.766335
 11
5195.515850
 21
3163.766335
  0
LINE
  8
CSLAYER3
  6
CONTINUOUS
 62
     3
 10
5185.647550
 20
3163.566335
 11
5195.515850
 21
3163.566335
  0
LINE
  8
CSLAYER3
  6
CONTINUOUS
 62
     3
 10
5185.682422
 20
3163.366335
 11
5195.515850
 21
3163.366335
  0
LINE
  8
CSLAYER3
  6
CONTINUOUS
 62
     3
 10
5185.721501
 20
3163.166335
 11
5195.515850
 21
3163.166335
  0
LINE
  8
CSLAYER3
  6
CONTINUOUS
 62
     3
 10
5185.764839
 20
3162.966335
 11
5195.515850
 21
3162.966335
  0
LINE
  8
CSLAYER3
  6
CONTINUOUS
 62
     3
 10
5185.812491
 20
3162.766335
 11
5195.515850
 21
3162.766335
  0
LINE
  8
CSLAYER3
  6
CONTINUOUS
 62
     3
 10
5185.864522
 20
3162.566335
 11
5195.515850
 21
3162.566335
  0
LINE
  8
CSLAYER3
  6
CONTINUOUS
 62
     3
 10
5185.921003
 20
3162.366335
 11
5195.515850
 21
3162.366335
  0
LINE
  8
CSLAYER3
  6
CONTINUOUS
 62
     3
 10
5185.982013
 20
3162.166335
 11
5195.515850
 21
3162.166335
  0
LINE
  8
CSLAYER3
  6
CONTINUOUS
 62
     3
 10
5186.047640
 20
3161.966335
 11
5195.515850
 21
3161.966335
  0
LINE
  8
CSLAYER3
  6
CONTINUOUS
 62
     3
 10
5186.117980
 20
3161.766335
 11
5195.515850
 21
3161.766335
  0
LINE
  8
CSLAYER3
  6
CONTINUOUS
 62
     3
 10
5186.193140
 20
3161.566335
 11
5195.515850
 21
3161.566335
  0
LINE
  8
CSLAYER3
  6
CONTINUOUS
 62
     3
 10
5186.273238
 20
3161.366335
 11
5195.515850
 21
3161.366335
  0
LINE
  8
CSLAYER3
  6
CONTINUOUS
 62
     3
 10
5186.358403
 20
3161.166335
 11
5195.515850
 21
3161.166335
  0
LINE
  8
CSLAYER3
  6
CONTINUOUS
 62
     3
 10
5186.448778
 20
3160.966335
 11
5195.515850
 21
3160.966335
  0
LINE
  8
CSLAYER3
  6
CONTINUOUS
 62
     3
 10
5186.544520
 20
3160.766335
 11
5195.515850
 21
3160.766335
  0
LINE
  8
CSLAYER3
  6
CONTINUOUS
 62
     3
 10
5186.645804
 20
3160.566335
 11
5195.515850
 21
3160.566335
  0
LINE
  8
CSLAYER3
  6
CONTINUOUS
 62
     3
 10
5186.752821
 20
3160.366335
 11
5195.515850
 21
3160.366335
  0
LINE
  8
CSLAYER3
  6
CONTINUOUS
 62
     3
 10
5186.865785
 20
3160.166335
 11
5195.515850
 21
3160.166335
  0
LINE
  8
CSLAYER3
  6
CONTINUOUS
 62
     3
 10
5186.984931
 20
3159.966335
 11
5195.515850
 21
3159.966335
  0
LINE
  8
CSLAYER3
  6
CONTINUOUS
 62
     3
 10
5187.110522
 20
3159.766335
 11
5195.515850
 21
3159.766335
  0
LINE
  8
CSLAYER3
  6
CONTINUOUS
 62
     3
 10
5187.242852
 20
3159.566335
 11
5195.515850
 21
3159.566335
  0
LINE
  8
CSLAYER3
  6
CONTINUOUS
 62
     3
 10
5187.382249
 20
3159.366335
 11
5195.515850
 21
3159.366335
  0
LINE
  8
CSLAYER3
  6
CONTINUOUS
 62
     3
 10
5187.529085
 20
3159.166335
 11
5195.515850
 21
3159.166335
  0
LINE
  8
CSLAYER3
  6
CONTINUOUS
 62
     3
 10
5187.683777
 20
3158.966335
 11
5195.515850
 21
3158.966335
  0
LINE
  8
CSLAYER3
  6
CONTINUOUS
 62
     3
 10
5187.846800
 20
3158.766335
 11
5195.515850
 21
3158.766335
  0
LINE
  8
CSLAYER3
  6
CONTINUOUS
 62
     3
 10
5188.018698
 20
3158.566335
 11
5195.515850
 21
3158.566335
  0
LINE
  8
CSLAYER3
  6
CONTINUOUS
 62
     3
 10
5188.200097
 20
3158.366335
 11
5195.515850
 21
3158.366335
  0
LINE
  8
CSLAYER3
  6
CONTINUOUS
 62
     3
 10
5188.391722
 20
3158.166335
 11
5195.515850
 21
3158.166335
  0
LINE
  8
CSLAYER3
  6
CONTINUOUS
 62
     3
 10
5188.594422
 20
3157.966335
 11
5195.515850
 21
3157.966335
  0
LINE
  8
CSLAYER3
  6
CONTINUOUS
 62
     3
 10
5188.809202
 20
3157.766335
 11
5195.515850
 21
3157.766335
  0
LINE
  8
CSLAYER3
  6
CONTINUOUS
 62
     3
 10
5189.037264
 20
3157.566335
 11
5195.515850
 21
3157.566335
  0
LINE
  8
CSLAYER3
  6
CONTINUOUS
 62
     3
 10
5189.280063
 20
3157.366335
 11
5195.515850
 21
3157.366335
  0
LINE
  8
CSLAYER3
  6
CONTINUOUS
 62
     3
 10
5189.539397
 20
3157.166335
 11
5195.515850
 21
3157.166335
  0
LINE
  8
CSLAYER3
  6
CONTINUOUS
 62
     3
 10
5189.817521
 20
3156.966335
 11
5195.515850
 21
3156.966335
  0
LINE
  8
CSLAYER3
  6
CONTINUOUS
 62
     3
 10
5190.117340
 20
3156.766335
 11
5195.515850
 21
3156.766335
  0
LINE
  8
CSLAYER3
  6
CONTINUOUS
 62
     3
 10
5190.442698
 20
3156.566335
 11
5195.515850
 21
3156.566335
  0
LINE
  8
CSLAYER3
  6
CONTINUOUS
 62
     3
 10
5190.798878
 20
3156.366335
 11
5195.515850
 21
3156.366335
  0
LINE
  8
CSLAYER3
  6
CONTINUOUS
 62
     3
 10
5191.193492
 20
3156.166335
 11
5195.515850
 21
3156.166335
  0
LINE
  8
CSLAYER3
  6
CONTINUOUS
 62
     3
 10
5191.638255
 20
3155.966335
 11
5195.515850
 21
3155.966335
  0
LINE
  8
CSLAYER3
  6
CONTINUOUS
 62
     3
 10
5192.153009
 20
3155.766335
 11
5195.515850
 21
3155.766335
  0
LINE
  8
CSLAYER3
  6
CONTINUOUS
 62
     3
 10
5192.776935
 20
3155.566335
 11
5195.515850
 21
3155.566335
  0
LINE
  8
CSLAYER3
  6
CONTINUOUS
 62
     3
 10
5193.614636
 20
3155.366335
 11
5195.515850
 21
3155.366335
  0
LINE
  8
CSLAYER3
  6
CONTINUOUS
 62
     7
 10
5016.286186
 20
3179.033941
 11
5028.893434
 21
3179.033941
  0
LINE
  8
CSLAYER3
  6
CONTINUOUS
 62
     7
 10
5010.506868
 20
3169.683941
 11
5010.506868
 21
3160.683941
  0
LINE
  8
CSLAYER3
  6
CONTINUOUS
 62
     7
 10
5036.506868
 20
3176.501060
 11
5036.506868
 21
3153.866822
  0
LINE
  8
CSLAYER3
  6
CONTINUOUS
 62
     7
 10
5016.286186
 20
3151.333941
 11
5028.893434
 21
3151.333941
  0
LINE
  8
CSLAYER3
  6
CONTINUOUS
 62
     7
 10
4998.506868
 20
3166.768941
 11
5010.506868
 21
3166.768941
  0
LINE
  8
CSLAYER3
  6
CONTINUOUS
 62
     7
 10
4998.506868
 20
3163.598941
 11
5010.506868
 21
3163.598941
  0
LINE
  8
CSLAYER3
  6
CONTINUOUS
 62
     7
 10
4998.506868
 20
3166.768941
 11
4998.506868
 21
3163.598941
  0
LINE
  8
CSLAYER3
  6
CONTINUOUS
 62
     7
 10
5028.893434
 20
3179.033941
 11
5028.893434
 21
3151.333941
  0
LINE
  8
CSLAYER3
  6
CONTINUOUS
 62
     7
 10
5028.893434
 20
3179.033941
 11
5028.893434
 21
3151.333941
  0
LINE
  8
CSLAYER3
  6
CONTINUOUS
 62
     7
 10
5028.893434
 20
3179.033941
 11
5028.893434
 21
3151.333941
  0
LINE
  8
CSLAYER3
  6
CONTINUOUS
 62
     7
 10
5028.612166
 20
3179.033941
 11
5028.612166
 21
3151.333941
  0
LINE
  8
CSLAYER3
  6
CONTINUOUS
 62
     7
 10
5016.286186
 20
3179.033941
 11
5016.286186
 21
3151.333941
  0
LINE
  8
CSLAYER3
  6
CONTINUOUS
 62
     7
 10
5016.286186
 20
3179.033941
 11
5012.506868
 21
3174.289910
  0
LINE
  8
CSLAYER3
  6
CONTINUOUS
 62
     7
 10
5012.506868
 20
3174.289910
 11
5012.506868
 21
3156.077972
  0
LINE
  8
CSLAYER3
  6
CONTINUOUS
 62
     7
 10
5012.506868
 20
3165.183941
 11
5010.506868
 21
3165.183941
  0
LINE
  8
CSLAYER3
  6
CONTINUOUS
 62
     7
 10
5012.506868
 20
3169.683941
 11
5010.506868
 21
3169.683941
  0
LINE
  8
CSLAYER3
  6
CONTINUOUS
 62
     7
 10
5016.286186
 20
3151.333941
 11
5016.286186
 21
3179.033941
  0
LINE
  8
CSLAYER3
  6
CONTINUOUS
 62
     7
 10
5016.286186
 20
3151.333941
 11
5012.506868
 21
3156.077972
  0
LINE
  8
CSLAYER3
  6
CONTINUOUS
 62
     7
 10
5012.506868
 20
3160.683941
 11
5010.506868
 21
3160.683941
  0
LINE
  8
CSLAYER3
  6
CONTINUOUS
 62
     7
 10
5028.893434
 20
3179.033941
 11
5036.506868
 21
3176.501060
  0
LINE
  8
CSLAYER3
  6
CONTINUOUS
 62
     7
 10
5028.893434
 20
3151.333941
 11
5036.506868
 21
3153.866822
  0
LINE
  8
CSLAYER3
  6
CONTINUOUS
 62
     3
 10
5219.515850
 20
3225.183941
 11
5374.257310
 21
3213.289629
  0
LINE
  8
CSLAYER3
  6
CONTINUOUS
 62
     3
 10
5374.257310
 20
3213.289629
 11
5394.524980
 21
3250.300156
  0
LINE
  8
CSLAYER3
  6
CONTINUOUS
 62
     3
 10
5739.515850
 20
3170.183941
 11
5739.515850
 21
3165.183941
  0
LINE
  8
CSLAYER3
  6
CONTINUOUS
 62
     3
 10
5739.515850
 20
3170.183941
 11
5637.170265
 21
3170.183941
  0
LINE
  8
CSLAYER3
  6
CONTINUOUS
 62
     3
 10
5634.515850
 20
3167.683941
 11
5637.170265
 21
3170.183941
  0
LINE
  8
CSLAYER3
  6
CONTINUOUS
 62
     3
 10
5739.515850
 20
3165.183941
 11
5637.170265
 21
3165.183941
  0
LINE
  8
CSLAYER3
  6
CONTINUOUS
 62
     3
 10
5634.515850
 20
3167.683941
 11
5637.170265
 21
3165.183941
  0
ENDBLK
  8
0
  0
ENDSEC
  0
SECTION
  2
ENTITIES
  0
LINE
  8
CSLAYER3
  6
CONTINUOUS
 62
     3
 10
5095.515850
 20
3485.743922
 11
5095.515850
 21
4285.743922
  0
LINE
  8
CSLAYER3
  6
CONTINUOUS
 62
     3
 10
5779.931144
 20
3885.743922
 11
5641.060171
 21
3885.743922
  0
LINE
  8
CSLAYER3
  6
CONTINUOUS
 62
     3
 10
5006.515850
 20
3860.743922
 11
5337.822419
 21
3860.743922
  0
LINE
  8
CSLAYER3
  6
CONTINUOUS
 62
     3
 10
5006.515850
 20
3910.743922
 11
5337.822419
 21
3910.743922
  0
LINE
  8
CSLAYER3
  6
CONTINUOUS
 62
     3
 10
5006.515850
 20
3913.743922
 11
5337.915305
 21
3913.743922
  0
LINE
  8
CSLAYER3
  6
CONTINUOUS
 62
     3
 10
5006.515850
 20
3857.743922
 11
5337.915305
 21
3857.743922
  0
LINE
  8
CSLAYER3
  6
CONTINUOUS
 62
     3
 10
5130.515850
 20
3450.743922
 11
5138.500224
 21
3450.743922
  0
LINE
  8
CSLAYER3
  6
CONTINUOUS
 62
     3
 10
5321.515850
 20
3485.743922
 11
5321.515850
 21
4285.743922
  0
LINE
  8
CSLAYER3
  6
CONTINUOUS
 62
     3
 10
5135.500224
 20
3450.743922
 11
5135.500224
 21
4320.743922
  0
LINE
  8
CSLAYER3
  6
CONTINUOUS
 62
     3
 10
5138.500224
 20
3450.743922
 11
5138.500224
 21
4320.743922
  0
LINE
  8
CSLAYER3
  6
CONTINUOUS
 62
     3
 10
5095.515850
 20
3485.743922
 11
5321.515850
 21
3485.743922
  0
LINE
  8
CSLAYER3
  6
CONTINUOUS
 62
     3
 10
5138.500224
 20
3450.743922
 11
5376.515850
 21
3496.262150
  0
LINE
  8
CSLAYER3
  6
CONTINUOUS
 62
     3
 10
5321.515850
 20
3847.743922
 11
5406.515850
 21
3847.743922
  0
LINE
  8
CSLAYER3
  6
CONTINUOUS
 62
     3
 10
5406.515850
 20
3847.743922
 11
5376.515850
 21
3496.262150
  0
ARC
  8
CSLAYER3
  6
CONTINUOUS
 62
     3
 10
5130.515850
 20
3485.743922
 40
35.000000
 50
180.000000
 51
270.000000
  0
LINE
  8
CSLAYER3
  6
CONTINUOUS
 62
     3
 10
5095.515850
 20
3790.743922
 11
5321.515850
 21
3790.743922
  0
LINE
  8
CSLAYER3
  6
CONTINUOUS
 62
     3
 10
5095.515850
 20
3685.743922
 11
5321.515850
 21
3685.743922
  0
LINE
  8
CSLAYER3
  6
CONTINUOUS
 62
     3
 10
5095.515850
 20
3787.743922
 11
5321.515850
 21
3787.743922
  0
LINE
  8
CSLAYER3
  6
CONTINUOUS
 62
     3
 10
5095.515850
 20
3688.743922
 11
5321.515850
 21
3688.743922
  0
LINE
  8
CSLAYER3
  6
CONTINUOUS
 62
     3
 10
5095.515850
 20
3590.743922
 11
5321.515850
 21
3590.743922
  0
LINE
  8
CSLAYER3
  6
CONTINUOUS
 62
     3
 10
5095.515850
 20
3587.743922
 11
5321.515850
 21
3587.743922
  0
LINE
  8
CSLAYER3
  6
CONTINUOUS
 62
     3
 10
5095.515850
 20
3488.743922
 11
5321.515850
 21
3488.743922
  0
LINE
  8
CSLAYER3
  6
CONTINUOUS
 62
     3
 10
5130.515850
 20
4320.743922
 11
5138.500224
 21
4320.743922
  0
LINE
  8
CSLAYER3
  6
CONTINUOUS
 62
     3
 10
5095.515850
 20
4285.743922
 11
5321.515850
 21
4285.743922
  0
LINE
  8
CSLAYER3
  6
CONTINUOUS
 62
     3
 10
5138.500224
 20
4320.743922
 11
5376.515850
 21
4275.225695
  0
LINE
  8
CSLAYER3
  6
CONTINUOUS
 62
     3
 10
5321.515850
 20
3923.743922
 11
5406.515850
 21
3923.743922
  0
LINE
  8
CSLAYER3
  6
CONTINUOUS
 62
     3
 10
5406.515850
 20
3923.743922
 11
5376.515850
 21
4275.225695
  0
ARC
  8
CSLAYER3
  6
CONTINUOUS
 62
     3
 10
5130.515850
 20
4285.743922
 40
35.000000
 50
90.000000
 51
180.000000
  0
LINE
  8
CSLAYER3
  6
CONTINUOUS
 62
     3
 10
5095.515850
 20
3980.743922
 11
5321.515850
 21
3980.743922
  0
LINE
  8
CSLAYER3
  6
CONTINUOUS
 62
     3
 10
5095.515850
 20
4085.743922
 11
5321.515850
 21
4085.743922
  0
LINE
  8
CSLAYER3
  6
CONTINUOUS
 62
     3
 10
5095.515850
 20
3983.743922
 11
5321.515850
 21
3983.743922
  0
LINE
  8
CSLAYER3
  6
CONTINUOUS
 62
     3
 10
5095.515850
 20
4082.743922
 11
5321.515850
 21
4082.743922
  0
LINE
  8
CSLAYER3
  6
CONTINUOUS
 62
     3
 10
5095.515850
 20
4180.743922
 11
5321.515850
 21
4180.743922
  0
LINE
  8
CSLAYER3
  6
CONTINUOUS
 62
     3
 10
5095.515850
 20
4183.743922
 11
5321.515850
 21
4183.743922
  0
LINE
  8
CSLAYER3
  6
CONTINUOUS
 62
     3
 10
5095.515850
 20
4282.743922
 11
5321.515850
 21
4282.743922
  0
LINE
  8
CSLAYER3
  6
CONTINUOUS
 62
     3
 10
5579.822419
 20
3895.743922
 11
5337.822419
 21
3910.743922
  0
LINE
  8
CSLAYER3
  6
CONTINUOUS
 62
     3
 10
5579.822419
 20
3895.743922
 11
5629.822419
 21
3890.743922
  0
LINE
  8
CSLAYER3
  6
CONTINUOUS
 62
     3
 10
5629.822419
 20
3890.743922
 11
5641.060171
 21
3885.743922
  0
LINE
  8
CSLAYER3
  6
CONTINUOUS
 62
     3
 10
5579.822419
 20
3875.743922
 11
5337.822419
 21
3860.743922
  0
LINE
  8
CSLAYER3
  6
CONTINUOUS
 62
     3
 10
5579.822419
 20
3875.743922
 11
5629.822419
 21
3880.743922
  0
LINE
  8
CSLAYER3
  6
CONTINUOUS
 62
     3
 10
5629.822419
 20
3880.743922
 11
5641.060171
 21
3885.743922
  0
LINE
  8
CSLAYER3
  6
CONTINUOUS
 62
     3
 10
5634.515850
 20
4080.743922
 11
5634.515850
 21
3690.743922
  0
LINE
  8
CSLAYER3
  6
CONTINUOUS
 62
     3
 10
5579.515850
 20
3885.743922
 11
5593.381269
 21
4065.994367
  0
LINE
  8
CSLAYER3
  6
CONTINUOUS
 62
     3
 10
5694.515850
 20
4075.743922
 11
5612.823068
 21
4082.551654
  0
LINE
  8
CSLAYER3
  6
CONTINUOUS
 62
     3
 10
5739.515850
 20
3980.743922
 11
5694.515850
 21
4075.743922
  0
ARC
  8
CSLAYER3
  6
CONTINUOUS
 62
     3
 10
5611.328250
 20
4064.613830
 40
18.000000
 50
85.236358
 51
175.601295
  0
LINE
  8
CSLAYER3
  6
CONTINUOUS
 62
     3
 10
5579.515850
 20
3885.743922
 11
5593.381269
 21
3705.493477
  0
LINE
  8
CSLAYER3
  6
CONTINUOUS
 62
     3
 10
5694.515850
 20
3695.743922
 11
5612.823068
 21
3688.936190
  0
LINE
  8
CSLAYER3
  6
CONTINUOUS
 62
     3
 10
5739.515850
 20
3790.743922
 11
5694.515850
 21
3695.743922
  0
ARC
  8
CSLAYER3
  6
CONTINUOUS
 62
     3
 10
5611.328250
 20
3706.874014
 40
18.000000
 50
184.398705
 51
274.763642
  0
LINE
  8
CSLAYER3
  6
CONTINUOUS
 62
     3
 10
5580.008014
 20
3898.738176
 11
5337.915305
 21
3913.743922
  0
LINE
  8
CSLAYER3
  6
CONTINUOUS
 62
     3
 10
5580.120931
 20
3898.729034
 11
5630.601074
 21
3893.681019
  0
LINE
  8
CSLAYER3
  6
CONTINUOUS
 62
     3
 10
5580.008014
 20
3872.749668
 11
5337.915305
 21
3857.743922
  0
LINE
  8
CSLAYER3
  6
CONTINUOUS
 62
     3
 10
5580.120931
 20
3872.758811
 11
5630.601074
 21
3877.806825
  0
LINE
  8
CSLAYER3
  6
CONTINUOUS
 62
     3
 10
5779.931144
 20
3888.243922
 11
5779.931144
 21
3883.243922
  0
LINE
  8
CSLAYER3
  6
CONTINUOUS
 62
     3
 10
5779.931144
 20
3888.243922
 11
5654.396132
 21
3888.243922
  0
LINE
  8
CSLAYER3
  6
CONTINUOUS
 62
     3
 10
5779.931144
 20
3883.243922
 11
5654.396132
 21
3883.243922
  0
LINE
  8
CSLAYER3
  6
CONTINUOUS
 62
     3
 10
5578.296629
 20
3888.243922
 11
5578.296629
 21
3883.243922
  0
LINE
  8
CSLAYER3
  6
CONTINUOUS
 62
     3
 10
5641.060171
 20
3888.243922
 11
5578.296629
 21
3888.243922
  0
LINE
  8
CSLAYER3
  6
CONTINUOUS
 62
     3
 10
5578.296629
 20
3883.243922
 11
5641.060171
 21
3883.243922
  0
INSERT
  8
CSLAYER1
  2
BLKF0000
 10
0.0
 20
0.0
 30
0.0
  0
LINE
  8
CSLAYER3
  6
CONTINUOUS
 62
     3
 10
5006.515850
 20
3913.743922
 11
5006.515850
 21
3857.743922
  0
INSERT
  8
CSLAYER1
  2
BLKF0001
 10
0.0
 20
0.0
 30
0.0
  0
LINE
  8
CSLAYER3
  6
CONTINUOUS
 62
     3
 10
5651.515850
 20
3883.243922
 11
5651.515850
 21
3888.243922
  0
LINE
  8
CSLAYER3
  6
CONTINUOUS
 62
     3
 10
5630.601074
 20
3893.681019
 11
5651.515850
 21
3888.243922
  0
LINE
  8
CSLAYER3
  6
CONTINUOUS
 62
     3
 10
5651.515850
 20
3883.243922
 11
5630.601074
 21
3877.806825
  0
LINE
  8
CSLAYER3
  6
CONTINUOUS
 62
     3
 10
5651.515850
 20
3885.743922
 11
5654.396132
 21
3888.243922
  0
LINE
  8
CSLAYER3
  6
CONTINUOUS
 62
     3
 10
5651.515850
 20
3888.243922
 11
5641.060171
 21
3888.243922
  0
LINE
  8
CSLAYER3
  6
CONTINUOUS
 62
     3
 10
5651.515850
 20
3885.743922
 11
5654.396132
 21
3883.243922
  0
LINE
  8
CSLAYER3
  6
CONTINUOUS
 62
     3
 10
5651.515850
 20
3883.243922
 11
5641.060171
 21
3883.243922
  0
LINE
  8
CSLAYER3
  6
CONTINUOUS
 62
     3
 10
5646.515850
 20
4080.743922
 11
5646.515850
 21
4079.743922
  0
LINE
  8
CSLAYER3
  6
CONTINUOUS
 62
     3
 10
5646.515850
 20
3891.939222
 11
5739.515850
 21
3980.743922
  0
LINE
  8
CSLAYER3
  6
CONTINUOUS
 62
     3
 10
5646.515850
 20
3891.939222
 11
5646.515850
 21
3879.548622
  0
LINE
  8
CSLAYER3
  6
CONTINUOUS
 62
     3
 10
5646.515850
 20
3879.548622
 11
5739.515850
 21
3790.743922
  0
LINE
  8
CSLAYER3
  6
CONTINUOUS
 62
     3
 10
5646.515850
 20
3691.743922
 11
5646.515850
 21
3690.743922
  0
INSERT
  8
CSLAYER1
  2
BLKF0002
 10
0.0
 20
0.0
 30
0.0
  0
LINE
  8
CSLAYER3
  6
CONTINUOUS
 62
     3
 10
5116.731024
 20
3000.519759
 11
5116.731024
 21
3135.397736
  0
CIRCLE
  8
CSLAYER3
  6
CONTINUOUS
 62
     3
 10
5116.731024
 20
3000.519759
 40
22.500000
  0
CIRCLE
  8
CSLAYER3
  6
CONTINUOUS
 62
     3
 10
5116.731024
 20
3000.519759
 40
30.500000
  0
TEXT
  8
CSLAYER3
 62
     3
 10
5395.914631
 20
3398.182545
 40
98.548973
 41
0.547059
  1
エアクローン
 50
0.000000
 51
0.000000
  7
FX_FONT
 72
     5
 11
5701.416424
 21
3398.182545
  0
ENDSEC
  0
EOF
