  0
SECTION
  2
HEADER
  9
$ACADVER
  1
AC1006
  9
$INSBASE
 10
2374.229142
 20
1780.713197
 30
0.0
  9
$EXTMIN
 10
2374.229142
 20
1780.713197
  9
$EXTMAX
 10
5370.450663
 20
3899.469844
  9
$LIMMIN
 10
2374.229142
 20
1780.713197
  9
$LIMMAX
 10
5370.450663
 20
3899.469844
  9
$VIEWCTR
 10
3872.339903
 20
2840.091520
  9
$VIEWSIZE
 40
2118.756647
  9
$SNAPMODE
 70
     0
  9
$SNAPUNIT
 10
1.0
 20
1.0
  9
$SNAPBASE
 10
0.0
 20
0.0
  9
$SNAPANG
 50
0.0
  9
$SNAPSTYLE
 70
     0
  9
$SNAPISOPAIR
 70
     0
  9
$GRIDMODE
 70
     0
  9
$GRIDUNIT
 10
0.0
 20
0.0
  9
$ORTHOMODE
 70
     0
  9
$REGENMODE
 70
     1
  9
$FILLMODE
 70
     1
  9
$QTEXTMODE
 70
     0
  9
$DRAGMODE
 70
     2
  9
$LTSCALE
 40
15.000000
  9
$OSMODE
 70
     0
  9
$ATTMODE
 70
     1
  9
$TEXTSIZE
 40
0.2
  9
$TRACEWID
 40
0.05
  9
$TEXTSTYLE
  7
STANDARD
  9
$CLAYER
  8
CSLAYER3
  9
$CELTYPE
  6
BYLAYER
  9
$CECOLOR
 62
   256
  9
$DIMSCALE
 40
1.0
  9
$DIMASZ
 40
0.18
  9
$DIMEXO
 40
0.0625
  9
$DIMDLI
 40
0.38
  9
$DIMRND
 40
0.0
  9
$DIMDLE
 40
0.0
  9
$DIMEXE
 40
0.18
  9
$DIMTP
 40
0.0
  9
$DIMTM
 40
0.0
  9
$DIMTXT
 40
0.18
  9
$DIMCEN
 40
0.09
  9
$DIMTSZ
 40
0.0
  9
$DIMTOL
 70
     0
  9
$DIMLIM
 70
     0
  9
$DIMTIH
 70
     1
  9
$DIMTOH
 70
     1
  9
$DIMSE1
 70
     0
  9
$DIMSE2
 70
     0
  9
$DIMTAD
 70
     0
  9
$DIMZIN
 70
     0
  9
$DIMBLK
  1

  9
$LUNITS
 70
     2
  9
$LUPREC
 70
     4
  9
$AXISMODE
 70
     0
  9
$AXISUNIT
 10
0.0
 20
0.0
  9
$SKETCHINC
 40
0.1
  9
$FILLETRAD
 40
0.0
  9
$AUNITS
 70
     0
  9
$AUPREC
 70
     0
  9
$MENU
  1
ACAD
  9
$ELEVATION
 40
0.0
  9
$THICKNESS
 40
0.0
  9
$VIEWDIR
 10
0.0
 20
0.0
 30
1.0
  9
$LIMCHECK
 70
     0
  9
$BLIPMODE
 70
     1
  9
$CHAMFERA
 40
0.0
  9
$CHAMFERB
 40
0.0
  9
$FASTZOOM
 70
     1
  9
$SKPOLY
 70
     0
  9
$TDCREATE
 40
2453187.000000
  9
$TDUPDATE
 40
2453187.000000
  9
$TDINDWG
 40
0.0
  9
$TDUSRTIMER
 40
0.0
  9
$USRTIMER
 70
     1
  9
$ANGBASE
 50
0.0
  9
$ANGDIR
 70
     0
  9
$PDMODE
 70
     0
  9
$PDSIZE
 40
0.0
  9
$PLINEWID
 40
0.0
  9
$COORDS
 70
     0
  9
$USERI1
 70
     0
  9
$USERI2
 70
     0
  9
$USERI3
 70
     0
  9
$USERI4
 70
     0
  9
$USERI5
 70
     0
  9
$USERR1
 40
0.0
  9
$USERR2
 40
0.0
  9
$USERR3
 40
0.0
  9
$USERR4
 40
0.0
  9
$USERR5
 40
0.0
  0
ENDSEC
  0
SECTION
  2
TABLES
  0
TABLE
  2
LTYPE
 70
     9
  0
LTYPE
  2
CONTINUOUS
 70
    64
  3
Solid line
 72
    65
 73
     0
 40
0.0
  0
LTYPE
  2
DASHED
 70
    64
  3
__ __ __ __ __ __ __ __ __ __ __ __ __ __ __
 72
    65
 73
     2
 40
0.75
 49
0.5
 49
-0.25
  0
LTYPE
  2
HIDDEN
 70
    64
  3
_ _ _ _ _ _ _ _ _ _ _ _ _ _ _ _ _ _ _ _ _ _ _
 72
    65
 73
     2
 40
0.375
 49
0.25
 49
-0.125
  0
LTYPE
  2
DOT
 70
    64
  3
...............................................
 72
    65
 73
     2
 40
0.25
 49
0.0
 49
-0.25
  0
LTYPE
  2
DASHDOT
 70
    64
  3
__ . __ . __ . __ . __ . __ . __ . __ . __ . __
 72
    65
 73
     4
 40
1.0
 49
0.5
 49
-0.25
 49
0.0
 49
-0.25
  0
LTYPE
  2
DIVIDE
 70
    64
  3
__ . . __ . . __ . . __ . . __ . . __ . . __
 72
    65
 73
     6
 40
1.25
 49
0.5
 49
-0.25
 49
0.0
 49
-0.25
 49
0.0
 49
-0.25
  0
LTYPE
  2
CENTER
 70
    64
  3
____ _ ____ _ ____ _ ____ _ ____ _ ____ _ ____ 
 72
    65
 73
     4
 40
2.0
 49
1.25
 49
-0.25
 49
0.25
 49
-0.25
  0
LTYPE
  2
PHANTOM
 70
    64
  3
______  __  __  ______  __  __  ______  __  __ 
 72
    65
 73
     6
 40
2.5
 49
1.25
 49
-0.25
 49
0.25
 49
-0.25
 49
0.25
 49
-0.25
  0
LTYPE
  2
BORDER
 70
    64
  3
__ __ . __ __ . __ __ . __ __ . __ __ . __ __ .
 72
    65
 73
     6
 40
1.75
 49
0.5
 49
-0.25
 49
0.5
 49
-0.25
 49
0.0
 49
-0.25
  0
ENDTAB
  0
TABLE
  2
LAYER
 70
    16
  0
LAYER
  2
CSLAYER1
 70
    64
 62
     7
  6
CONTINUOUS
  0
LAYER
  2
CSLAYER2
 70
    64
 62
     7
  6
CONTINUOUS
  0
LAYER
  2
CSLAYER3
 70
    64
 62
     7
  6
CONTINUOUS
  0
LAYER
  2
CSLAYER4
 70
    64
 62
     7
  6
CONTINUOUS
  0
LAYER
  2
CSLAYER5
 70
    64
 62
     7
  6
CONTINUOUS
  0
LAYER
  2
CSLAYER6
 70
    64
 62
     7
  6
CONTINUOUS
  0
LAYER
  2
CSLAYER7
 70
    64
 62
     7
  6
CONTINUOUS
  0
LAYER
  2
CSLAYER8
 70
    64
 62
     7
  6
CONTINUOUS
  0
LAYER
  2
CSLAYER9
 70
    64
 62
     7
  6
CONTINUOUS
  0
LAYER
  2
CSLAYER10
 70
    64
 62
     7
  6
CONTINUOUS
  0
LAYER
  2
CSLAYER11
 70
    64
 62
     7
  6
CONTINUOUS
  0
LAYER
  2
CSLAYER12
 70
    64
 62
     7
  6
CONTINUOUS
  0
LAYER
  2
CSLAYER13
 70
    64
 62
     7
  6
CONTINUOUS
  0
LAYER
  2
CSLAYER14
 70
    64
 62
     7
  6
CONTINUOUS
  0
LAYER
  2
CSLAYER15
 70
    64
 62
     7
  6
CONTINUOUS
  0
LAYER
  2
CSLAYER16
 70
    64
 62
     7
  6
CONTINUOUS
  0
ENDTAB
  0
TABLE
  2
STYLE
 70
     1
  0
STYLE
  2
FX_FONT
 70
     0
 40
1.0
 41
1.0
 50
0.0
 71
     0
 42
1.0
  3
monotxt
  4
bigfont
  0
ENDTAB
  0
TABLE
  2
VIEW
 70
     0
  0
ENDTAB
  0
ENDSEC
  0
SECTION
  2
BLOCKS
  0
BLOCK
  8
CSLAYER1
  2
BLKF0000
 70
   64
 10
0.0
 20
0.0
 30
0.0
  0
LINE
  8
CSLAYER3
  6
CONTINUOUS
 62
     3
 10
3645.255058
 20
3597.279299
 11
3782.055058
 21
3597.279299
  0
LINE
  8
CSLAYER3
  6
CONTINUOUS
 62
     3
 10
3645.255058
 20
2837.279299
 11
3782.055058
 21
2837.279299
  0
LINE
  8
CSLAYER3
  6
CONTINUOUS
 62
     3
 10
3782.055058
 20
3597.279299
 11
3782.055058
 21
2837.279299
  0
LINE
  8
CSLAYER3
  6
CONTINUOUS
 62
     3
 10
3612.683629
 20
3564.707870
 11
3612.683629
 21
2869.850727
  0
ARC
  8
CSLAYER3
  6
CONTINUOUS
 62
     3
 10
3645.255058
 20
2869.850727
 40
32.571429
 50
180.000000
 51
270.000000
  0
ARC
  8
CSLAYER3
  6
CONTINUOUS
 62
     3
 10
3645.255058
 20
3564.707870
 40
32.571429
 50
90.000000
 51
180.000000
  0
ENDBLK
  8
0
  0
BLOCK
  8
CSLAYER1
  2
BLKF0001
 70
   64
 10
0.0
 20
0.0
 30
0.0
  0
LINE
  8
CSLAYER3
  6
CONTINUOUS
 62
     3
 10
3874.340772
 20
3274.482537
 11
3844.882592
 21
3597.279299
  0
LINE
  8
CSLAYER3
  6
CONTINUOUS
 62
     3
 10
3782.055058
 20
3249.850727
 11
3874.340772
 21
3274.482537
  0
LINE
  8
CSLAYER3
  6
CONTINUOUS
 62
     3
 10
3844.882592
 20
3597.279299
 11
3782.055058
 21
3597.279299
  0
LINE
  8
CSLAYER3
  6
CONTINUOUS
 62
     3
 10
3782.055058
 20
3597.279299
 11
3782.055058
 21
3249.850727
  0
ENDBLK
  8
0
  0
BLOCK
  8
CSLAYER1
  2
BLKF0002
 70
   64
 10
0.0
 20
0.0
 30
0.0
  0
LINE
  8
CSLAYER3
  6
CONTINUOUS
 62
     3
 10
3874.340772
 20
3160.076060
 11
3844.882592
 21
2837.279299
  0
LINE
  8
CSLAYER3
  6
CONTINUOUS
 62
     3
 10
3782.055058
 20
3184.707870
 11
3874.340772
 21
3160.076060
  0
LINE
  8
CSLAYER3
  6
CONTINUOUS
 62
     3
 10
3844.882592
 20
2837.279299
 11
3782.055058
 21
2837.279299
  0
LINE
  8
CSLAYER3
  6
CONTINUOUS
 62
     3
 10
3782.055058
 20
2837.279299
 11
3782.055058
 21
3184.707870
  0
ENDBLK
  8
0
  0
BLOCK
  8
CSLAYER1
  2
BLKF0003
 70
   64
 10
0.0
 20
0.0
 30
0.0
  0
LINE
  8
CSLAYER3
  6
CONTINUOUS
 62
     3
 10
3493.051103
 20
2656.464442
 11
3493.051103
 21
2643.435870
  0
LINE
  8
CSLAYER3
  6
CONTINUOUS
 62
     3
 10
3510.422532
 20
2656.464442
 11
3493.051103
 21
2656.464442
  0
LINE
  8
CSLAYER3
  6
CONTINUOUS
 62
     3
 10
3510.422532
 20
2643.435870
 11
3493.051103
 21
2643.435870
  0
LINE
  8
CSLAYER3
  6
CONTINUOUS
 62
     3
 10
3510.422532
 20
2656.464442
 11
3510.422532
 21
2643.435870
  0
LINE
  8
CSLAYER3
  6
CONTINUOUS
 62
     3
 10
3512.593960
 20
2644.521584
 11
3510.422532
 21
2644.521584
  0
LINE
  8
CSLAYER3
  6
CONTINUOUS
 62
     3
 10
3512.593960
 20
2655.378727
 11
3510.422532
 21
2655.378727
  0
LINE
  8
CSLAYER3
  6
CONTINUOUS
 62
     7
 10
3522.582532
 20
2662.110156
 11
3522.582532
 21
2637.790156
  0
LINE
  8
CSLAYER3
  6
CONTINUOUS
 62
     7
 10
3515.308246
 20
2662.978727
 11
3515.308246
 21
2636.921584
  0
LINE
  8
CSLAYER3
  6
CONTINUOUS
 62
     7
 10
3515.308246
 20
2662.978727
 11
3521.713960
 21
2662.978727
  0
LINE
  8
CSLAYER3
  6
CONTINUOUS
 62
     7
 10
3515.308246
 20
2636.921584
 11
3521.713960
 21
2636.921584
  0
ARC
  8
CSLAYER3
  6
CONTINUOUS
 62
     7
 10
3521.713960
 20
2662.110156
 40
0.868571
 50
0.000000
 51
90.000000
  0
ARC
  8
CSLAYER3
  6
CONTINUOUS
 62
     7
 10
3521.713960
 20
2637.790156
 40
0.868571
 50
270.000000
 51
360.000000
  0
LINE
  8
CSLAYER3
  6
CONTINUOUS
 62
     7
 10
3523.233960
 20
2660.807299
 11
3523.233960
 21
2639.093013
  0
LINE
  8
CSLAYER3
  6
CONTINUOUS
 62
     7
 10
3523.233960
 20
2639.093013
 11
3522.582532
 21
2639.093013
  0
LINE
  8
CSLAYER3
  6
CONTINUOUS
 62
     7
 10
3523.233960
 20
2660.807299
 11
3522.582532
 21
2660.807299
  0
LINE
  8
CSLAYER3
  6
CONTINUOUS
 62
     7
 10
3528.662532
 20
2655.378727
 11
3528.662532
 21
2644.521584
  0
LINE
  8
CSLAYER3
  6
CONTINUOUS
 62
     7
 10
3528.662532
 20
2655.378727
 11
3523.233960
 21
2655.378727
  0
LINE
  8
CSLAYER3
  6
CONTINUOUS
 62
     7
 10
3528.662532
 20
2644.521584
 11
3523.233960
 21
2644.521584
  0
LINE
  8
CSLAYER3
  6
CONTINUOUS
 62
     7
 10
3512.593960
 20
2661.301150
 11
3512.593960
 21
2638.599162
  0
LINE
  8
CSLAYER3
  6
CONTINUOUS
 62
     7
 10
3515.308246
 20
2661.301150
 11
3512.776539
 21
2661.301150
  0
LINE
  8
CSLAYER3
  6
CONTINUOUS
 62
     7
 10
3515.308246
 20
2638.599162
 11
3512.776539
 21
2638.599162
  0
LINE
  8
CSLAYER3
  6
CONTINUOUS
 62
     3
 10
3489.823020
 20
2654.162727
 11
3486.023020
 21
2654.162727
  0
LINE
  8
CSLAYER3
  6
CONTINUOUS
 62
     3
 10
3489.823020
 20
2645.737584
 11
3486.023020
 21
2645.737584
  0
LINE
  8
CSLAYER3
  6
CONTINUOUS
 62
     3
 10
3486.023020
 20
2655.248442
 11
3486.023020
 21
2644.651870
  0
LINE
  8
CSLAYER3
  6
CONTINUOUS
 62
     3
 10
3484.937306
 20
2655.248442
 11
3484.937306
 21
2644.651870
  0
LINE
  8
CSLAYER3
  6
CONTINUOUS
 62
     3
 10
3489.823020
 20
2655.248442
 11
3489.823020
 21
2644.651870
  0
LINE
  8
CSLAYER3
  6
CONTINUOUS
 62
     3
 10
3490.908734
 20
2655.248442
 11
3490.908734
 21
2644.651870
  0
LINE
  8
CSLAYER3
  6
CONTINUOUS
 62
     3
 10
3490.908734
 20
2655.248442
 11
3489.823020
 21
2655.248442
  0
LINE
  8
CSLAYER3
  6
CENTER
 62
     7
 10
3481.917110
 20
2649.950156
 11
3532.855609
 21
2649.950156
  0
LINE
  8
CSLAYER3
  6
CONTINUOUS
 62
     3
 10
3486.023020
 20
2655.248442
 11
3484.937306
 21
2655.248442
  0
LINE
  8
CSLAYER3
  6
CONTINUOUS
 62
     3
 10
3490.908734
 20
2644.651870
 11
3489.823020
 21
2644.651870
  0
LINE
  8
CSLAYER3
  6
CONTINUOUS
 62
     3
 10
3486.023020
 20
2644.651870
 11
3484.937306
 21
2644.651870
  0
LINE
  8
CSLAYER3
  6
CONTINUOUS
 62
     3
 10
3490.908734
 20
2660.378442
 11
3484.937306
 21
2660.378442
  0
LINE
  8
CSLAYER3
  6
CONTINUOUS
 62
     3
 10
3484.937306
 20
2688.465870
 11
3490.908734
 21
2688.465870
  0
LINE
  8
CSLAYER3
  6
CONTINUOUS
 62
     3
 10
3490.908734
 20
2660.378442
 11
3490.908734
 21
2688.465870
  0
LINE
  8
CSLAYER3
  6
CONTINUOUS
 62
     3
 10
3484.937306
 20
2688.465870
 11
3484.937306
 21
2660.378442
  0
LINE
  8
CSLAYER3
  6
CONTINUOUS
 62
     3
 10
3493.593960
 20
2640.721584
 11
3493.593960
 21
2686.147870
  0
LINE
  8
CSLAYER3
  6
CONTINUOUS
 62
     3
 10
3499.022532
 20
2640.721584
 11
3499.022532
 21
2686.147870
  0
LINE
  8
CSLAYER3
  6
CONTINUOUS
 62
     3
 10
3499.022532
 20
2640.721584
 11
3493.593960
 21
2640.721584
  0
LINE
  8
CSLAYER3
  6
CONTINUOUS
 62
     3
 10
3499.022532
 20
2686.147870
 11
3493.593960
 21
2686.147870
  0
LINE
  8
CSLAYER3
  6
CONTINUOUS
 62
     3
 10
3504.451103
 20
2640.721584
 11
3504.451103
 21
2686.147870
  0
LINE
  8
CSLAYER3
  6
CONTINUOUS
 62
     3
 10
3509.879675
 20
2640.721584
 11
3509.879675
 21
2686.147870
  0
LINE
  8
CSLAYER3
  6
CONTINUOUS
 62
     3
 10
3509.879675
 20
2640.721584
 11
3504.451103
 21
2640.721584
  0
LINE
  8
CSLAYER3
  6
CONTINUOUS
 62
     3
 10
3509.879675
 20
2686.147870
 11
3504.451103
 21
2686.147870
  0
LINE
  8
CSLAYER3
  6
CONTINUOUS
 62
     3
 10
3558.899796
 20
2684.465013
 11
3493.756939
 21
2684.465013
  0
LINE
  8
CSLAYER3
  6
CONTINUOUS
 62
     3
 10
3558.899796
 20
2680.230727
 11
3493.756939
 21
2680.230727
  0
LINE
  8
CSLAYER3
  6
CONTINUOUS
 62
     3
 10
3558.899796
 20
2664.379299
 11
3493.756939
 21
2664.379299
  0
LINE
  8
CSLAYER3
  6
CONTINUOUS
 62
     3
 10
3558.899796
 20
2668.613584
 11
3493.756939
 21
2668.613584
  0
LINE
  8
CSLAYER3
  6
CONTINUOUS
 62
     3
 10
3558.899796
 20
2676.539299
 11
3493.756939
 21
2676.539299
  0
LINE
  8
CSLAYER3
  6
CONTINUOUS
 62
     3
 10
3558.899796
 20
2672.305013
 11
3493.756939
 21
2672.305013
  0
LINE
  8
CSLAYER3
  6
CONTINUOUS
 62
     3
 10
3558.899796
 20
2684.465013
 11
3558.899796
 21
2680.230727
  0
LINE
  8
CSLAYER3
  6
CONTINUOUS
 62
     3
 10
3558.899796
 20
2676.539299
 11
3558.899796
 21
2672.305013
  0
LINE
  8
CSLAYER3
  6
CONTINUOUS
 62
     3
 10
3558.899796
 20
2668.613584
 11
3558.899796
 21
2664.379299
  0
LINE
  8
CSLAYER3
  6
CONTINUOUS
 62
     3
 10
3527.576818
 20
2658.016969
 11
3527.576818
 21
2690.827342
  0
LINE
  8
CSLAYER3
  6
CONTINUOUS
 62
     3
 10
3530.833960
 20
2658.016969
 11
3530.833960
 21
2690.827342
  0
LINE
  8
CSLAYER3
  6
CONTINUOUS
 62
     3
 10
3530.833960
 20
2690.827342
 11
3527.576818
 21
2690.827342
  0
LINE
  8
CSLAYER3
  6
CONTINUOUS
 62
     3
 10
3530.833960
 20
2658.016969
 11
3527.576818
 21
2658.016969
  0
LINE
  8
CSLAYER3
  6
CONTINUOUS
 62
     3
 10
3477.011591
 20
2664.107870
 11
3477.011591
 21
2684.736442
  0
LINE
  8
CSLAYER3
  6
CONTINUOUS
 62
     3
 10
3481.354449
 20
2664.107870
 11
3481.354449
 21
2666.279299
  0
LINE
  8
CSLAYER3
  6
CONTINUOUS
 62
     3
 10
3481.354449
 20
2684.736442
 11
3477.011591
 21
2684.736442
  0
LINE
  8
CSLAYER3
  6
CONTINUOUS
 62
     3
 10
3481.354449
 20
2664.107870
 11
3477.011591
 21
2664.107870
  0
LINE
  8
CSLAYER3
  6
CONTINUOUS
 62
     3
 10
3480.051591
 20
2666.279299
 11
3480.051591
 21
2671.872448
  0
LINE
  8
CSLAYER3
  6
CONTINUOUS
 62
     3
 10
3481.354449
 20
2666.279299
 11
3480.051591
 21
2666.279299
  0
LINE
  8
CSLAYER3
  6
CONTINUOUS
 62
     3
 10
3481.354449
 20
2682.565013
 11
3480.051591
 21
2682.565013
  0
LINE
  8
CSLAYER3
  6
CONTINUOUS
 62
     3
 10
3481.354449
 20
2677.679299
 11
3480.051591
 21
2677.679299
  0
LINE
  8
CSLAYER3
  6
CONTINUOUS
 62
     3
 10
3481.354449
 20
2682.565013
 11
3481.354449
 21
2684.736442
  0
LINE
  8
CSLAYER3
  6
CONTINUOUS
 62
     3
 10
3481.354449
 20
2671.165013
 11
3480.051591
 21
2671.165013
  0
LINE
  8
CSLAYER3
  6
CONTINUOUS
 62
     3
 10
3481.354449
 20
2671.165013
 11
3481.354449
 21
2677.679299
  0
LINE
  8
CSLAYER3
  6
CONTINUOUS
 62
     3
 10
3480.051591
 20
2676.988167
 11
3480.051591
 21
2682.565013
  0
LINE
  8
CSLAYER3
  6
CONTINUOUS
 62
     3
 10
3477.011591
 20
2676.050727
 11
3467.240163
 21
2676.050727
  0
LINE
  8
CSLAYER3
  6
CONTINUOUS
 62
     3
 10
3477.011591
 20
2672.793584
 11
3467.240163
 21
2672.793584
  0
LINE
  8
CSLAYER3
  6
CONTINUOUS
 62
     3
 10
3467.240163
 20
2672.793584
 11
3467.240163
 21
2676.050727
  0
LINE
  8
CSLAYER3
  6
CONTINUOUS
 62
     3
 10
3474.840163
 20
2671.925013
 11
3474.840163
 21
2676.919299
  0
LINE
  8
CSLAYER3
  6
CONTINUOUS
 62
     3
 10
3477.011591
 20
2676.919299
 11
3474.840163
 21
2676.919299
  0
LINE
  8
CSLAYER3
  6
CONTINUOUS
 62
     3
 10
3477.011591
 20
2671.925013
 11
3474.840163
 21
2671.925013
  0
LINE
  8
CSLAYER3
  6
CONTINUOUS
 62
     3
 10
3477.011591
 20
2675.929742
 11
3474.840163
 21
2675.929742
  0
LINE
  8
CSLAYER3
  6
CONTINUOUS
 62
     3
 10
3477.011591
 20
2672.914570
 11
3474.840163
 21
2672.914570
  0
LINE
  8
CSLAYER3
  6
CONTINUOUS
 62
     3
 10
3484.937306
 20
2672.793584
 11
3481.354449
 21
2672.793584
  0
LINE
  8
CSLAYER3
  6
CONTINUOUS
 62
     3
 10
3484.937306
 20
2676.050727
 11
3481.354449
 21
2676.050727
  0
ENDBLK
  8
0
  0
BLOCK
  8
CSLAYER1
  2
BLKF0004
 70
   64
 10
0.0
 20
0.0
 30
0.0
  0
LINE
  8
CSLAYER3
  6
CONTINUOUS
 62
     3
 10
3651.773982
 20
2688.437146
 11
3651.773982
 21
2660.407166
  0
LINE
  8
CSLAYER3
  6
CONTINUOUS
 62
     3
 10
3654.488268
 20
2688.389182
 11
3654.488268
 21
2660.455130
  0
ARC
  8
CSLAYER3
  6
CONTINUOUS
 62
     3
 10
3621.981017
 20
2674.422156
 40
6.042648
 50
173.695367
 51
186.304633
  0
LINE
  8
CSLAYER3
  6
CONTINUOUS
 62
     3
 10
3653.273982
 20
2688.422156
 11
3653.273982
 21
2660.422156
  0
ARC
  8
CSLAYER3
  6
CONTINUOUS
 62
     3
 10
3651.685817
 20
2604.557425
 40
83.879767
 50
88.915107
 51
107.445903
  0
ARC
  8
CSLAYER3
  6
CONTINUOUS
 62
     3
 10
3633.319433
 20
2662.041771
 40
23.535094
 50
106.746134
 51
129.570055
  0
ARC
  8
CSLAYER3
  6
CONTINUOUS
 62
     3
 10
3625.952609
 20
2673.573732
 40
10.091606
 50
139.080530
 51
171.383098
  0
ARC
  8
CSLAYER3
  6
CONTINUOUS
 62
     3
 10
3631.753565
 20
1873.553499
 40
815.152781
 50
86.184889
 51
88.487189
  0
LINE
  8
CSLAYER3
  6
CONTINUOUS
 62
     3
 10
3728.555092
 20
2682.460936
 11
3741.054490
 21
2680.586523
  0
LINE
  8
CSLAYER3
  6
CONTINUOUS
 62
     3
 10
3778.802553
 20
2674.422156
 11
3741.054490
 21
2680.586523
  0
LINE
  8
CSLAYER3
  6
CONTINUOUS
 62
     3
 10
3685.991432
 20
2686.899864
 11
3728.555092
 21
2682.460936
  0
ARC
  8
CSLAYER3
  6
CONTINUOUS
 62
     3
 10
3621.981017
 20
2674.422156
 40
6.042648
 50
173.695367
 51
186.304633
  0
ARC
  8
CSLAYER3
  6
CONTINUOUS
 62
     3
 10
3651.685817
 20
2744.286887
 40
83.879767
 50
252.554097
 51
271.084893
  0
ARC
  8
CSLAYER3
  6
CONTINUOUS
 62
     3
 10
3633.319433
 20
2686.802541
 40
23.535094
 50
230.429945
 51
253.253866
  0
ARC
  8
CSLAYER3
  6
CONTINUOUS
 62
     3
 10
3625.952609
 20
2675.270580
 40
10.091606
 50
188.616902
 51
220.919470
  0
ARC
  8
CSLAYER3
  6
CONTINUOUS
 62
     3
 10
3631.753565
 20
3475.290813
 40
815.152781
 50
271.512811
 51
273.815111
  0
LINE
  8
CSLAYER3
  6
CONTINUOUS
 62
     3
 10
3728.555092
 20
2666.383376
 11
3741.054490
 21
2668.257789
  0
LINE
  8
CSLAYER3
  6
CONTINUOUS
 62
     3
 10
3778.802553
 20
2674.422156
 11
3741.054490
 21
2668.257789
  0
LINE
  8
CSLAYER3
  6
CONTINUOUS
 62
     3
 10
3685.991432
 20
2661.944447
 11
3728.555092
 21
2666.383376
  0
ENDBLK
  8
0
  0
BLOCK
  8
CSLAYER1
  2
BLKF0005
 70
   64
 10
0.0
 20
0.0
 30
0.0
  0
LINE
  8
CSLAYER3
  6
CONTINUOUS
 62
     3
 10
3689.142353
 20
3216.861693
 11
3699.133629
 21
3216.861693
  0
LINE
  8
CSLAYER3
  6
CONTINUOUS
 62
     3
 10
3689.135997
 20
3217.061693
 11
3699.133629
 21
3217.061693
  0
LINE
  8
CSLAYER3
  6
CONTINUOUS
 62
     3
 10
3689.133645
 20
3217.261693
 11
3699.133629
 21
3217.261693
  0
LINE
  8
CSLAYER3
  6
CONTINUOUS
 62
     3
 10
3699.133629
 20
3217.461693
 11
3709.131966
 21
3217.461693
  0
LINE
  8
CSLAYER3
  6
CONTINUOUS
 62
     3
 10
3699.133629
 20
3217.661693
 11
3709.126315
 21
3217.661693
  0
LINE
  8
CSLAYER3
  6
CONTINUOUS
 62
     3
 10
3699.133629
 20
3217.861693
 11
3709.116655
 21
3217.861693
  0
LINE
  8
CSLAYER3
  6
CONTINUOUS
 62
     3
 10
3699.133629
 20
3218.061693
 11
3709.102975
 21
3218.061693
  0
LINE
  8
CSLAYER3
  6
CONTINUOUS
 62
     3
 10
3699.133629
 20
3218.261693
 11
3709.085257
 21
3218.261693
  0
LINE
  8
CSLAYER3
  6
CONTINUOUS
 62
     3
 10
3699.133629
 20
3218.461693
 11
3709.063480
 21
3218.461693
  0
LINE
  8
CSLAYER3
  6
CONTINUOUS
 62
     3
 10
3699.133629
 20
3218.661693
 11
3709.037617
 21
3218.661693
  0
LINE
  8
CSLAYER3
  6
CONTINUOUS
 62
     3
 10
3699.133629
 20
3218.861693
 11
3709.007637
 21
3218.861693
  0
LINE
  8
CSLAYER3
  6
CONTINUOUS
 62
     3
 10
3699.133629
 20
3219.061693
 11
3708.973501
 21
3219.061693
  0
LINE
  8
CSLAYER3
  6
CONTINUOUS
 62
     3
 10
3699.133629
 20
3219.261693
 11
3708.935165
 21
3219.261693
  0
LINE
  8
CSLAYER3
  6
CONTINUOUS
 62
     3
 10
3699.133629
 20
3219.461693
 11
3708.892582
 21
3219.461693
  0
LINE
  8
CSLAYER3
  6
CONTINUOUS
 62
     3
 10
3699.133629
 20
3219.661693
 11
3708.845694
 21
3219.661693
  0
LINE
  8
CSLAYER3
  6
CONTINUOUS
 62
     3
 10
3699.133629
 20
3219.861693
 11
3708.794439
 21
3219.861693
  0
LINE
  8
CSLAYER3
  6
CONTINUOUS
 62
     3
 10
3699.133629
 20
3220.061693
 11
3708.738747
 21
3220.061693
  0
LINE
  8
CSLAYER3
  6
CONTINUOUS
 62
     3
 10
3699.133629
 20
3220.261693
 11
3708.678540
 21
3220.261693
  0
LINE
  8
CSLAYER3
  6
CONTINUOUS
 62
     3
 10
3699.133629
 20
3220.461693
 11
3708.613733
 21
3220.461693
  0
LINE
  8
CSLAYER3
  6
CONTINUOUS
 62
     3
 10
3699.133629
 20
3220.661693
 11
3708.544230
 21
3220.661693
  0
LINE
  8
CSLAYER3
  6
CONTINUOUS
 62
     3
 10
3699.133629
 20
3220.861693
 11
3708.469927
 21
3220.861693
  0
LINE
  8
CSLAYER3
  6
CONTINUOUS
 62
     3
 10
3699.133629
 20
3221.061693
 11
3708.390707
 21
3221.061693
  0
LINE
  8
CSLAYER3
  6
CONTINUOUS
 62
     3
 10
3699.133629
 20
3221.261693
 11
3708.306444
 21
3221.261693
  0
LINE
  8
CSLAYER3
  6
CONTINUOUS
 62
     3
 10
3699.133629
 20
3221.461693
 11
3708.216997
 21
3221.461693
  0
LINE
  8
CSLAYER3
  6
CONTINUOUS
 62
     3
 10
3699.133629
 20
3221.661693
 11
3708.122212
 21
3221.661693
  0
LINE
  8
CSLAYER3
  6
CONTINUOUS
 62
     3
 10
3699.133629
 20
3221.861693
 11
3708.021917
 21
3221.861693
  0
LINE
  8
CSLAYER3
  6
CONTINUOUS
 62
     3
 10
3699.133629
 20
3222.061693
 11
3707.915924
 21
3222.061693
  0
LINE
  8
CSLAYER3
  6
CONTINUOUS
 62
     3
 10
3699.133629
 20
3222.261693
 11
3707.804024
 21
3222.261693
  0
LINE
  8
CSLAYER3
  6
CONTINUOUS
 62
     3
 10
3699.133629
 20
3222.461693
 11
3707.685985
 21
3222.461693
  0
LINE
  8
CSLAYER3
  6
CONTINUOUS
 62
     3
 10
3699.133629
 20
3222.661693
 11
3707.561549
 21
3222.661693
  0
LINE
  8
CSLAYER3
  6
CONTINUOUS
 62
     3
 10
3699.133629
 20
3222.861693
 11
3707.430428
 21
3222.861693
  0
LINE
  8
CSLAYER3
  6
CONTINUOUS
 62
     3
 10
3699.133629
 20
3223.061693
 11
3707.292300
 21
3223.061693
  0
LINE
  8
CSLAYER3
  6
CONTINUOUS
 62
     3
 10
3699.133629
 20
3223.261693
 11
3707.146803
 21
3223.261693
  0
LINE
  8
CSLAYER3
  6
CONTINUOUS
 62
     3
 10
3699.133629
 20
3223.461693
 11
3706.993527
 21
3223.461693
  0
LINE
  8
CSLAYER3
  6
CONTINUOUS
 62
     3
 10
3699.133629
 20
3223.661693
 11
3706.832008
 21
3223.661693
  0
LINE
  8
CSLAYER3
  6
CONTINUOUS
 62
     3
 10
3699.133629
 20
3223.861693
 11
3706.661716
 21
3223.861693
  0
LINE
  8
CSLAYER3
  6
CONTINUOUS
 62
     3
 10
3699.133629
 20
3224.061693
 11
3706.482039
 21
3224.061693
  0
LINE
  8
CSLAYER3
  6
CONTINUOUS
 62
     3
 10
3699.133629
 20
3224.261693
 11
3706.292272
 21
3224.261693
  0
LINE
  8
CSLAYER3
  6
CONTINUOUS
 62
     3
 10
3699.133629
 20
3224.461693
 11
3706.091590
 21
3224.461693
  0
LINE
  8
CSLAYER3
  6
CONTINUOUS
 62
     3
 10
3699.133629
 20
3224.661693
 11
3705.879017
 21
3224.661693
  0
LINE
  8
CSLAYER3
  6
CONTINUOUS
 62
     3
 10
3699.133629
 20
3224.861693
 11
3705.653391
 21
3224.861693
  0
LINE
  8
CSLAYER3
  6
CONTINUOUS
 62
     3
 10
3699.133629
 20
3225.061693
 11
3705.413306
 21
3225.061693
  0
LINE
  8
CSLAYER3
  6
CONTINUOUS
 62
     3
 10
3699.133629
 20
3225.261693
 11
3705.157032
 21
3225.261693
  0
LINE
  8
CSLAYER3
  6
CONTINUOUS
 62
     3
 10
3699.133629
 20
3225.461693
 11
3704.882405
 21
3225.461693
  0
LINE
  8
CSLAYER3
  6
CONTINUOUS
 62
     3
 10
3699.133629
 20
3225.661693
 11
3704.586653
 21
3225.661693
  0
LINE
  8
CSLAYER3
  6
CONTINUOUS
 62
     3
 10
3699.133629
 20
3225.861693
 11
3704.266125
 21
3225.861693
  0
LINE
  8
CSLAYER3
  6
CONTINUOUS
 62
     3
 10
3699.133629
 20
3226.061693
 11
3703.915841
 21
3226.061693
  0
LINE
  8
CSLAYER3
  6
CONTINUOUS
 62
     3
 10
3699.133629
 20
3226.261693
 11
3703.528694
 21
3226.261693
  0
LINE
  8
CSLAYER3
  6
CONTINUOUS
 62
     3
 10
3699.133629
 20
3226.461693
 11
3703.093886
 21
3226.461693
  0
LINE
  8
CSLAYER3
  6
CONTINUOUS
 62
     3
 10
3699.133629
 20
3226.661693
 11
3702.593496
 21
3226.661693
  0
LINE
  8
CSLAYER3
  6
CONTINUOUS
 62
     3
 10
3699.133629
 20
3226.861693
 11
3701.993301
 21
3226.861693
  0
LINE
  8
CSLAYER3
  6
CONTINUOUS
 62
     3
 10
3699.133629
 20
3227.061693
 11
3701.208422
 21
3227.061693
  0
LINE
  8
CSLAYER3
  6
CONTINUOUS
 62
     3
 10
3699.133629
 20
3227.261693
 11
3699.726763
 21
3227.261693
  0
LINE
  8
CSLAYER3
  6
CONTINUOUS
 62
     3
 10
3689.152719
 20
3216.661693
 11
3699.133629
 21
3216.661693
  0
LINE
  8
CSLAYER3
  6
CONTINUOUS
 62
     3
 10
3689.167109
 20
3216.461693
 11
3699.133629
 21
3216.461693
  0
LINE
  8
CSLAYER3
  6
CONTINUOUS
 62
     3
 10
3689.185540
 20
3216.261693
 11
3699.133629
 21
3216.261693
  0
LINE
  8
CSLAYER3
  6
CONTINUOUS
 62
     3
 10
3689.208034
 20
3216.061693
 11
3699.133629
 21
3216.061693
  0
LINE
  8
CSLAYER3
  6
CONTINUOUS
 62
     3
 10
3689.234619
 20
3215.861693
 11
3699.133629
 21
3215.861693
  0
LINE
  8
CSLAYER3
  6
CONTINUOUS
 62
     3
 10
3689.265329
 20
3215.661693
 11
3699.133629
 21
3215.661693
  0
LINE
  8
CSLAYER3
  6
CONTINUOUS
 62
     3
 10
3689.300201
 20
3215.461693
 11
3699.133629
 21
3215.461693
  0
LINE
  8
CSLAYER3
  6
CONTINUOUS
 62
     3
 10
3689.339280
 20
3215.261693
 11
3699.133629
 21
3215.261693
  0
LINE
  8
CSLAYER3
  6
CONTINUOUS
 62
     3
 10
3689.382618
 20
3215.061693
 11
3699.133629
 21
3215.061693
  0
LINE
  8
CSLAYER3
  6
CONTINUOUS
 62
     3
 10
3689.430270
 20
3214.861693
 11
3699.133629
 21
3214.861693
  0
LINE
  8
CSLAYER3
  6
CONTINUOUS
 62
     3
 10
3689.482301
 20
3214.661693
 11
3699.133629
 21
3214.661693
  0
LINE
  8
CSLAYER3
  6
CONTINUOUS
 62
     3
 10
3689.538782
 20
3214.461693
 11
3699.133629
 21
3214.461693
  0
LINE
  8
CSLAYER3
  6
CONTINUOUS
 62
     3
 10
3689.599792
 20
3214.261693
 11
3699.133629
 21
3214.261693
  0
LINE
  8
CSLAYER3
  6
CONTINUOUS
 62
     3
 10
3689.665418
 20
3214.061693
 11
3699.133629
 21
3214.061693
  0
LINE
  8
CSLAYER3
  6
CONTINUOUS
 62
     3
 10
3689.735759
 20
3213.861693
 11
3699.133629
 21
3213.861693
  0
LINE
  8
CSLAYER3
  6
CONTINUOUS
 62
     3
 10
3689.810919
 20
3213.661693
 11
3699.133629
 21
3213.661693
  0
LINE
  8
CSLAYER3
  6
CONTINUOUS
 62
     3
 10
3689.891017
 20
3213.461693
 11
3699.133629
 21
3213.461693
  0
LINE
  8
CSLAYER3
  6
CONTINUOUS
 62
     3
 10
3689.976182
 20
3213.261693
 11
3699.133629
 21
3213.261693
  0
LINE
  8
CSLAYER3
  6
CONTINUOUS
 62
     3
 10
3690.066557
 20
3213.061693
 11
3699.133629
 21
3213.061693
  0
LINE
  8
CSLAYER3
  6
CONTINUOUS
 62
     3
 10
3690.162299
 20
3212.861693
 11
3699.133629
 21
3212.861693
  0
LINE
  8
CSLAYER3
  6
CONTINUOUS
 62
     3
 10
3690.263583
 20
3212.661693
 11
3699.133629
 21
3212.661693
  0
LINE
  8
CSLAYER3
  6
CONTINUOUS
 62
     3
 10
3690.370600
 20
3212.461693
 11
3699.133629
 21
3212.461693
  0
LINE
  8
CSLAYER3
  6
CONTINUOUS
 62
     3
 10
3690.483564
 20
3212.261693
 11
3699.133629
 21
3212.261693
  0
LINE
  8
CSLAYER3
  6
CONTINUOUS
 62
     3
 10
3690.602709
 20
3212.061693
 11
3699.133629
 21
3212.061693
  0
LINE
  8
CSLAYER3
  6
CONTINUOUS
 62
     3
 10
3690.728301
 20
3211.861693
 11
3699.133629
 21
3211.861693
  0
LINE
  8
CSLAYER3
  6
CONTINUOUS
 62
     3
 10
3690.860631
 20
3211.661693
 11
3699.133629
 21
3211.661693
  0
LINE
  8
CSLAYER3
  6
CONTINUOUS
 62
     3
 10
3691.000028
 20
3211.461693
 11
3699.133629
 21
3211.461693
  0
LINE
  8
CSLAYER3
  6
CONTINUOUS
 62
     3
 10
3691.146864
 20
3211.261693
 11
3699.133629
 21
3211.261693
  0
LINE
  8
CSLAYER3
  6
CONTINUOUS
 62
     3
 10
3691.301555
 20
3211.061693
 11
3699.133629
 21
3211.061693
  0
LINE
  8
CSLAYER3
  6
CONTINUOUS
 62
     3
 10
3691.464579
 20
3210.861693
 11
3699.133629
 21
3210.861693
  0
LINE
  8
CSLAYER3
  6
CONTINUOUS
 62
     3
 10
3691.636477
 20
3210.661693
 11
3699.133629
 21
3210.661693
  0
LINE
  8
CSLAYER3
  6
CONTINUOUS
 62
     3
 10
3691.817875
 20
3210.461693
 11
3699.133629
 21
3210.461693
  0
LINE
  8
CSLAYER3
  6
CONTINUOUS
 62
     3
 10
3692.009500
 20
3210.261693
 11
3699.133629
 21
3210.261693
  0
LINE
  8
CSLAYER3
  6
CONTINUOUS
 62
     3
 10
3692.212201
 20
3210.061693
 11
3699.133629
 21
3210.061693
  0
LINE
  8
CSLAYER3
  6
CONTINUOUS
 62
     3
 10
3692.426981
 20
3209.861693
 11
3699.133629
 21
3209.861693
  0
LINE
  8
CSLAYER3
  6
CONTINUOUS
 62
     3
 10
3692.655043
 20
3209.661693
 11
3699.133629
 21
3209.661693
  0
LINE
  8
CSLAYER3
  6
CONTINUOUS
 62
     3
 10
3692.897842
 20
3209.461693
 11
3699.133629
 21
3209.461693
  0
LINE
  8
CSLAYER3
  6
CONTINUOUS
 62
     3
 10
3693.157176
 20
3209.261693
 11
3699.133629
 21
3209.261693
  0
LINE
  8
CSLAYER3
  6
CONTINUOUS
 62
     3
 10
3693.435300
 20
3209.061693
 11
3699.133629
 21
3209.061693
  0
LINE
  8
CSLAYER3
  6
CONTINUOUS
 62
     3
 10
3693.735119
 20
3208.861693
 11
3699.133629
 21
3208.861693
  0
LINE
  8
CSLAYER3
  6
CONTINUOUS
 62
     3
 10
3694.060477
 20
3208.661693
 11
3699.133629
 21
3208.661693
  0
LINE
  8
CSLAYER3
  6
CONTINUOUS
 62
     3
 10
3694.416657
 20
3208.461693
 11
3699.133629
 21
3208.461693
  0
LINE
  8
CSLAYER3
  6
CONTINUOUS
 62
     3
 10
3694.811270
 20
3208.261693
 11
3699.133629
 21
3208.261693
  0
LINE
  8
CSLAYER3
  6
CONTINUOUS
 62
     3
 10
3695.256034
 20
3208.061693
 11
3699.133629
 21
3208.061693
  0
LINE
  8
CSLAYER3
  6
CONTINUOUS
 62
     3
 10
3695.770788
 20
3207.861693
 11
3699.133629
 21
3207.861693
  0
LINE
  8
CSLAYER3
  6
CONTINUOUS
 62
     3
 10
3696.394714
 20
3207.661693
 11
3699.133629
 21
3207.661693
  0
LINE
  8
CSLAYER3
  6
CONTINUOUS
 62
     3
 10
3697.232415
 20
3207.461693
 11
3699.133629
 21
3207.461693
  0
ENDBLK
  8
0
  0
BLOCK
  8
CSLAYER1
  2
BLKF0006
 70
   64
 10
0.0
 20
0.0
 30
0.0
  0
LINE
  8
CSLAYER3
  6
CONTINUOUS
 62
     3
 10
3122.339903
 20
3687.594179
 11
3122.339903
 21
2295.009261
  0
LINE
  8
CSLAYER3
  6
CONTINUOUS
 62
     3
 10
3222.339903
 20
3687.594179
 11
3222.339903
 21
2295.009261
  0
LINE
  8
CSLAYER3
  6
CONTINUOUS
 62
     3
 10
3322.339903
 20
3687.594179
 11
3322.339903
 21
2295.009261
  0
LINE
  8
CSLAYER3
  6
CONTINUOUS
 62
     3
 10
3422.339903
 20
3687.594179
 11
3422.339903
 21
2295.009261
  0
LINE
  8
CSLAYER3
  6
CONTINUOUS
 62
     3
 10
3522.339903
 20
3687.594179
 11
3522.339903
 21
2295.009261
  0
LINE
  8
CSLAYER3
  6
CONTINUOUS
 62
     3
 10
3622.339903
 20
3687.594179
 11
3622.339903
 21
2295.009261
  0
LINE
  8
CSLAYER3
  6
CONTINUOUS
 62
     3
 10
3722.339903
 20
3687.594179
 11
3722.339903
 21
2295.009261
  0
LINE
  8
CSLAYER3
  6
CONTINUOUS
 62
     3
 10
3822.339903
 20
3687.594179
 11
3822.339903
 21
2295.009261
  0
LINE
  8
CSLAYER3
  6
CONTINUOUS
 62
     3
 10
3922.339903
 20
3687.594179
 11
3922.339903
 21
2295.009261
  0
LINE
  8
CSLAYER3
  6
CONTINUOUS
 62
     3
 10
4022.339903
 20
3687.594179
 11
4022.339903
 21
2295.009261
  0
LINE
  8
CSLAYER3
  6
CONTINUOUS
 62
     3
 10
4122.339903
 20
3687.594179
 11
4122.339903
 21
2295.009261
  0
LINE
  8
CSLAYER3
  6
CONTINUOUS
 62
     3
 10
4222.339903
 20
3687.594179
 11
4222.339903
 21
2295.009261
  0
LINE
  8
CSLAYER3
  6
CONTINUOUS
 62
     3
 10
4322.339903
 20
3687.594179
 11
4322.339903
 21
2295.009261
  0
LINE
  8
CSLAYER3
  6
CONTINUOUS
 62
     3
 10
4422.339903
 20
3687.594179
 11
4422.339903
 21
2295.009261
  0
LINE
  8
CSLAYER3
  6
CONTINUOUS
 62
     3
 10
4522.339903
 20
3687.594179
 11
4522.339903
 21
2295.009261
  0
LINE
  8
CSLAYER3
  6
CONTINUOUS
 62
     3
 10
4622.339903
 20
3687.594179
 11
4622.339903
 21
2295.009261
  0
LINE
  8
CSLAYER3
  6
CONTINUOUS
 62
     3
 10
3122.339903
 20
2287.594179
 11
4622.339903
 21
2287.594179
  0
LINE
  8
CSLAYER3
  6
CONTINUOUS
 62
     3
 10
3122.339903
 20
2387.594179
 11
4622.339903
 21
2387.594179
  0
LINE
  8
CSLAYER3
  6
CONTINUOUS
 62
     3
 10
3122.339903
 20
2487.594179
 11
4622.339903
 21
2487.594179
  0
LINE
  8
CSLAYER3
  6
CONTINUOUS
 62
     3
 10
3122.339903
 20
2587.594179
 11
4622.339903
 21
2587.594179
  0
LINE
  8
CSLAYER3
  6
CONTINUOUS
 62
     3
 10
3122.339903
 20
2687.594179
 11
4622.339903
 21
2687.594179
  0
LINE
  8
CSLAYER3
  6
CONTINUOUS
 62
     3
 10
3122.339903
 20
2787.594179
 11
4622.339903
 21
2787.594179
  0
LINE
  8
CSLAYER3
  6
CONTINUOUS
 62
     3
 10
3122.339903
 20
2887.594179
 11
4622.339903
 21
2887.594179
  0
LINE
  8
CSLAYER3
  6
CONTINUOUS
 62
     3
 10
3122.339903
 20
2987.594179
 11
4622.339903
 21
2987.594179
  0
LINE
  8
CSLAYER3
  6
CONTINUOUS
 62
     3
 10
3122.339903
 20
3087.594179
 11
4622.339903
 21
3087.594179
  0
LINE
  8
CSLAYER3
  6
CONTINUOUS
 62
     3
 10
3122.339903
 20
3187.594179
 11
4622.339903
 21
3187.594179
  0
LINE
  8
CSLAYER3
  6
CONTINUOUS
 62
     3
 10
3122.339903
 20
3287.594179
 11
4622.339903
 21
3287.594179
  0
LINE
  8
CSLAYER3
  6
CONTINUOUS
 62
     3
 10
3122.339903
 20
3387.594179
 11
4622.339903
 21
3387.594179
  0
LINE
  8
CSLAYER3
  6
CONTINUOUS
 62
     3
 10
3122.339903
 20
3487.594179
 11
4622.339903
 21
3487.594179
  0
LINE
  8
CSLAYER3
  6
CONTINUOUS
 62
     3
 10
3122.339903
 20
3587.594179
 11
4622.339903
 21
3587.594179
  0
LINE
  8
CSLAYER3
  6
CONTINUOUS
 62
     3
 10
3122.339903
 20
3687.594179
 11
4622.339903
 21
3687.594179
  0
ENDBLK
  8
0
  0
ENDSEC
  0
SECTION
  2
ENTITIES
  0
TEXT
  8
CSLAYER3
 62
     3
 10
3814.474003
 20
2168.558353
 40
74.100090
 41
0.903126
  1
Akabara11
 50
0.000000
 51
0.000000
  7
FX_FONT
 72
     5
 11
4394.462521
 21
2168.558353
  0
TEXT
  8
CSLAYER3
 62
     3
 10
3925.065083
 20
2080.640129
 40
74.201187
 41
0.534483
  1
2004/02/21
 50
0.000000
 51
0.000000
  7
FX_FONT
 72
     5
 11
4308.437847
 21
2080.640129
  0
INSERT
  8
CSLAYER1
  2
BLKF0000
 10
0.0
 20
0.0
 30
0.0
  0
LINE
  8
CSLAYER3
  6
CONTINUOUS
 62
     3
 10
3782.055058
 20
2674.422156
 11
3830.912200
 21
2674.422156
  0
LINE
  8
CSLAYER3
  6
CONTINUOUS
 62
     3
 10
3830.912200
 20
2676.593584
 11
3830.912200
 21
2672.250727
  0
LINE
  8
CSLAYER3
  6
CONTINUOUS
 62
     3
 10
3782.055058
 20
2672.250727
 11
3830.912200
 21
2672.250727
  0
LINE
  8
CSLAYER3
  6
CONTINUOUS
 62
     3
 10
3782.055058
 20
2676.593584
 11
3830.912200
 21
2676.593584
  0
LINE
  8
CSLAYER3
  6
CONTINUOUS
 62
     3
 10
4225.294559
 20
3390.026797
 11
4225.294559
 21
3259.741082
  0
LINE
  8
CSLAYER3
  6
CONTINUOUS
 62
     3
 10
4283.269277
 20
3217.279299
 11
3485.269277
 21
3217.279299
  0
LINE
  8
CSLAYER3
  6
CONTINUOUS
 62
     3
 10
4084.393938
 20
3238.105712
 11
4100.437417
 21
3372.205560
  0
LINE
  8
CSLAYER3
  6
CONTINUOUS
 62
     3
 10
4100.437417
 20
3372.205560
 11
4225.294559
 21
3390.026797
  0
LINE
  8
CSLAYER3
  6
CONTINUOUS
 62
     3
 10
4178.592740
 20
3228.926246
 11
4225.294559
 21
3259.741082
  0
LINE
  8
CSLAYER3
  6
CONTINUOUS
 62
     3
 10
4225.294559
 20
3172.751944
 11
4225.294559
 21
3042.466230
  0
LINE
  8
CSLAYER3
  6
CONTINUOUS
 62
     3
 10
3485.269277
 20
3238.993584
 11
3485.269277
 21
3195.565013
  0
LINE
  8
CSLAYER3
  6
CONTINUOUS
 62
     3
 10
4088.893130
 20
2674.422156
 11
4225.294559
 21
2674.422156
  0
LINE
  8
CSLAYER3
  6
CONTINUOUS
 62
     3
 10
4219.178845
 20
2674.422156
 11
4158.600777
 21
2680.792330
  0
ARC
  8
CSLAYER3
  6
CONTINUOUS
 62
     3
 10
4131.730383
 20
2401.919055
 40
280.164812
 50
84.496346
 51
96.029948
  0
ARC
  8
CSLAYER3
  6
CONTINUOUS
 62
     3
 10
4106.415970
 20
2650.161013
 40
30.650417
 50
97.718270
 51
123.147387
  0
ARC
  8
CSLAYER3
  6
CONTINUOUS
 62
     3
 10
4106.415970
 20
2698.683299
 40
30.650417
 50
236.852613
 51
262.281730
  0
ARC
  8
CSLAYER3
  6
CONTINUOUS
 62
     3
 10
4131.730383
 20
2946.925256
 40
280.164812
 50
263.970052
 51
275.503654
  0
LINE
  8
CSLAYER3
  6
CONTINUOUS
 62
     3
 10
4219.178845
 20
2674.422156
 11
4158.600777
 21
2668.051981
  0
ARC
  8
CSLAYER3
  6
CONTINUOUS
 62
     3
 10
4090.561240
 20
2674.422156
 40
1.668110
 50
122.845947
 51
237.154053
  0
LINE
  8
CSLAYER3
  6
CONTINUOUS
 62
     3
 10
3583.369343
 20
2598.422156
 11
3664.797915
 21
2598.422156
  0
LINE
  8
CSLAYER3
  6
CONTINUOUS
 62
     3
 10
3485.269277
 20
2696.136442
 11
3485.269277
 21
2652.707870
  0
LINE
  8
CSLAYER3
  6
CONTINUOUS
 62
     3
 10
4266.299154
 20
2782.993584
 11
4157.124757
 21
2782.993584
  0
LINE
  8
CSLAYER3
  6
CONTINUOUS
 62
     3
 10
4000.173096
 20
2729.053392
 11
3720.104385
 21
2756.087688
  0
LINE
  8
CSLAYER3
  6
CONTINUOUS
 62
     3
 10
4175.750273
 20
2782.993584
 11
4175.750273
 21
2620.136442
  0
LINE
  8
CSLAYER3
  6
CONTINUOUS
 62
     3
 10
3583.369343
 20
2598.422156
 11
3556.598350
 21
2604.151742
  0
LINE
  8
CSLAYER3
  6
CONTINUOUS
 62
     3
 10
3523.972699
 20
2724.454932
 11
3564.387378
 21
2708.051008
  0
LINE
  8
CSLAYER3
  6
CONTINUOUS
 62
     3
 10
3564.387378
 20
2708.051008
 11
3713.276296
 21
2703.092944
  0
LINE
  8
CSLAYER3
  6
CONTINUOUS
 62
     3
 10
3713.276296
 20
2703.092944
 11
3783.491945
 21
2708.778421
  0
LINE
  8
CSLAYER3
  6
CONTINUOUS
 62
     3
 10
3835.482743
 20
2745.224677
 11
3821.857911
 21
2728.874880
  0
LINE
  8
CSLAYER3
  6
CONTINUOUS
 62
     3
 10
3821.857911
 20
2728.874880
 11
3783.491945
 21
2708.778421
  0
LINE
  8
CSLAYER3
  6
CONTINUOUS
 62
     3
 10
3612.683629
 20
3244.422156
 11
3894.940282
 21
3244.422156
  0
LINE
  8
CSLAYER3
  6
CONTINUOUS
 62
     3
 10
3612.683629
 20
3190.136442
 11
3894.940282
 21
3190.136442
  0
LINE
  8
CSLAYER3
  6
CONTINUOUS
 62
     3
 10
3612.683629
 20
3244.422156
 11
3485.269277
 21
3238.993584
  0
LINE
  8
CSLAYER3
  6
CONTINUOUS
 62
     3
 10
3485.269277
 20
3195.565013
 11
3612.683629
 21
3190.136442
  0
LINE
  8
CSLAYER3
  6
CONTINUOUS
 62
     3
 10
4283.269277
 20
3220.536442
 11
4033.737058
 21
3220.536442
  0
LINE
  8
CSLAYER3
  6
CONTINUOUS
 62
     3
 10
4283.269277
 20
3214.022156
 11
4033.737058
 21
3214.022156
  0
LINE
  8
CSLAYER3
  6
CONTINUOUS
 62
     3
 10
3485.269277
 20
2652.707870
 11
3494.285631
 21
2636.748470
  0
LINE
  8
CSLAYER3
  6
CONTINUOUS
 62
     3
 10
3494.285631
 20
2636.748470
 11
3556.598350
 21
2604.151742
  0
LINE
  8
CSLAYER3
  6
CONTINUOUS
 62
     3
 10
3474.297306
 20
2533.279299
 11
3474.297306
 21
2815.565013
  0
LINE
  8
CSLAYER3
  6
CONTINUOUS
 62
     3
 10
3482.230209
 20
2728.707870
 11
3463.389564
 21
2728.707870
  0
LINE
  8
CSLAYER3
  6
CONTINUOUS
 62
     3
 10
3474.297306
 20
2815.565013
 11
3463.389564
 21
2728.707870
  0
LINE
  8
CSLAYER3
  6
CONTINUOUS
 62
     3
 10
3482.230209
 20
2620.136442
 11
3463.389564
 21
2620.136442
  0
LINE
  8
CSLAYER3
  6
CONTINUOUS
 62
     3
 10
3463.389564
 20
2728.707870
 11
3482.230209
 21
2620.136442
  0
LINE
  8
CSLAYER3
  6
CONTINUOUS
 62
     3
 10
3482.230209
 20
2620.136442
 11
3474.297306
 21
2533.279299
  0
LINE
  8
CSLAYER3
  6
CONTINUOUS
 62
     3
 10
3474.297306
 20
2533.279299
 11
3463.389564
 21
2620.136442
  0
LINE
  8
CSLAYER3
  6
CONTINUOUS
 62
     3
 10
3463.389564
 20
2620.136442
 11
3482.230209
 21
2728.707870
  0
LINE
  8
CSLAYER3
  6
CONTINUOUS
 62
     3
 10
3482.230209
 20
2728.707870
 11
3474.297306
 21
2815.565013
  0
LINE
  8
CSLAYER3
  6
CONTINUOUS
 62
     3
 10
3474.297306
 20
3076.136442
 11
3474.297306
 21
3358.422156
  0
LINE
  8
CSLAYER3
  6
CONTINUOUS
 62
     3
 10
3482.230209
 20
3271.565013
 11
3463.389564
 21
3271.565013
  0
LINE
  8
CSLAYER3
  6
CONTINUOUS
 62
     3
 10
3474.297306
 20
3358.422156
 11
3463.389564
 21
3271.565013
  0
LINE
  8
CSLAYER3
  6
CONTINUOUS
 62
     3
 10
3482.230209
 20
3162.993584
 11
3463.389564
 21
3162.993584
  0
LINE
  8
CSLAYER3
  6
CONTINUOUS
 62
     3
 10
3463.389564
 20
3271.565013
 11
3482.230209
 21
3162.993584
  0
LINE
  8
CSLAYER3
  6
CONTINUOUS
 62
     3
 10
3482.230209
 20
3162.993584
 11
3474.297306
 21
3076.136442
  0
LINE
  8
CSLAYER3
  6
CONTINUOUS
 62
     3
 10
3474.297306
 20
3076.136442
 11
3463.389564
 21
3162.993584
  0
LINE
  8
CSLAYER3
  6
CONTINUOUS
 62
     3
 10
3463.389564
 20
3162.993584
 11
3482.230209
 21
3271.565013
  0
LINE
  8
CSLAYER3
  6
CONTINUOUS
 62
     3
 10
3482.230209
 20
3271.565013
 11
3474.297306
 21
3358.422156
  0
LINE
  8
CSLAYER3
  6
CONTINUOUS
 62
     3
 10
3602.959357
 20
2630.209393
 11
3547.390714
 21
2520.203944
  0
CIRCLE
  8
CSLAYER3
  6
CONTINUOUS
 62
     3
 10
3547.390714
 20
2520.203944
 40
13.571429
  0
LINE
  8
CSLAYER3
  6
CONTINUOUS
 62
     3
 10
4168.966116
 20
2621.430010
 11
4192.508482
 21
2602.444231
  0
LINE
  8
CSLAYER3
  6
CONTINUOUS
 62
     3
 10
3534.126420
 20
3198.822156
 11
3534.126420
 21
3235.736442
  0
LINE
  8
CSLAYER3
  6
CONTINUOUS
 62
     3
 10
3534.126420
 20
3198.822156
 11
3540.239566
 21
3198.822156
  0
LINE
  8
CSLAYER3
  6
CONTINUOUS
 62
     3
 10
3534.126420
 20
3235.736442
 11
3540.239566
 21
3235.736442
  0
LINE
  8
CSLAYER3
  6
CONTINUOUS
 62
     3
 10
3612.683629
 20
2868.765013
 11
3782.055058
 21
2868.765013
  0
LINE
  8
CSLAYER3
  6
CONTINUOUS
 62
     3
 10
3612.683629
 20
3109.793584
 11
3782.055058
 21
3109.793584
  0
LINE
  8
CSLAYER3
  6
CONTINUOUS
 62
     3
 10
3612.683629
 20
3029.450727
 11
3782.055058
 21
3029.450727
  0
LINE
  8
CSLAYER3
  6
CONTINUOUS
 62
     3
 10
3612.683629
 20
2949.107870
 11
3782.055058
 21
2949.107870
  0
LINE
  8
CSLAYER3
  6
CONTINUOUS
 62
     3
 10
3651.769343
 20
2837.279299
 11
3651.769343
 21
3597.279299
  0
LINE
  8
CSLAYER3
  6
CONTINUOUS
 62
     3
 10
3654.483629
 20
2837.279299
 11
3654.483629
 21
3597.279299
  0
LINE
  8
CSLAYER3
  6
CONTINUOUS
 62
     3
 10
4100.437417
 20
3062.353037
 11
4225.294559
 21
3042.466230
  0
LINE
  8
CSLAYER3
  6
CONTINUOUS
 62
     3
 10
4084.393938
 20
3196.452886
 11
4100.437417
 21
3062.353037
  0
LINE
  8
CSLAYER3
  6
CONTINUOUS
 62
     3
 10
4178.444414
 20
3205.617897
 11
4225.294559
 21
3172.751944
  0
LINE
  8
CSLAYER3
  6
CONTINUOUS
 62
     3
 10
4136.481324
 20
2778.915314
 11
4068.014734
 21
2742.531406
  0
LINE
  8
CSLAYER3
  6
CONTINUOUS
 62
     3
 10
3894.940282
 20
3244.422156
 11
4023.456571
 21
3240.771352
  0
LINE
  8
CSLAYER3
  6
CONTINUOUS
 62
     3
 10
4023.456571
 20
3240.771352
 11
4162.900522
 21
3227.182847
  0
LINE
  8
CSLAYER3
  6
CONTINUOUS
 62
     3
 10
4162.900522
 20
3227.182847
 11
4175.750273
 21
3222.707870
  0
LINE
  8
CSLAYER3
  6
CONTINUOUS
 62
     3
 10
4162.900522
 20
3207.375751
 11
4175.750273
 21
3211.850727
  0
LINE
  8
CSLAYER3
  6
CONTINUOUS
 62
     3
 10
4023.456571
 20
3193.787245
 11
4162.900522
 21
3207.375751
  0
LINE
  8
CSLAYER3
  6
CONTINUOUS
 62
     3
 10
3894.940282
 20
3190.136442
 11
4023.456571
 21
3193.787245
  0
LINE
  8
CSLAYER3
  6
CONTINUOUS
 62
     3
 10
3652.574259
 20
2657.398789
 11
3530.833960
 21
2657.398789
  0
LINE
  8
CSLAYER3
  6
CONTINUOUS
 62
     3
 10
3652.574259
 20
2691.444818
 11
3530.833960
 21
2691.444818
  0
LINE
  8
CSLAYER3
  6
CONTINUOUS
 62
     3
 10
3782.055058
 20
2674.422156
 11
4175.750273
 21
2674.422156
  0
LINE
  8
CSLAYER3
  6
CONTINUOUS
 62
     3
 10
3795.750273
 20
2678.765013
 11
4175.750273
 21
2678.765013
  0
LINE
  8
CSLAYER3
  6
CONTINUOUS
 62
     3
 10
3485.269277
 20
2696.136442
 11
3505.415924
 21
2714.145612
  0
LINE
  8
CSLAYER3
  6
CONTINUOUS
 62
     3
 10
3505.415924
 20
2714.145612
 11
3527.730886
 21
2726.542813
  0
LINE
  8
CSLAYER3
  6
CONTINUOUS
 62
     3
 10
3578.822620
 20
2747.618054
 11
3628.411423
 21
2753.816655
  0
LINE
  8
CSLAYER3
  6
CONTINUOUS
 62
     3
 10
3628.411423
 20
2753.816655
 11
3720.104385
 21
2756.087688
  0
LINE
  8
CSLAYER3
  6
CONTINUOUS
 62
     3
 10
3566.697849
 20
2693.964818
 11
3566.697849
 21
2654.878789
  0
LINE
  8
CSLAYER3
  6
CONTINUOUS
 62
     3
 10
3652.574259
 20
2654.141647
 11
3530.833960
 21
2654.141647
  0
LINE
  8
CSLAYER3
  6
CONTINUOUS
 62
     3
 10
3652.574259
 20
2694.701961
 11
3530.833960
 21
2694.701961
  0
LINE
  8
CSLAYER3
  6
CONTINUOUS
 62
     3
 10
3652.574259
 20
2654.141647
 11
3652.574259
 21
2657.398789
  0
LINE
  8
CSLAYER3
  6
CONTINUOUS
 62
     3
 10
3652.574259
 20
2694.701961
 11
3652.574259
 21
2691.445522
  0
LINE
  8
CSLAYER3
  6
CONTINUOUS
 62
     3
 10
4303.926129
 20
2619.675394
 11
3535.207947
 21
2498.434319
  0
LINE
  8
CSLAYER3
  6
CONTINUOUS
 62
     3
 10
4175.750273
 20
2620.136442
 11
4283.269277
 21
2627.340219
  0
ARC
  8
CSLAYER3
  6
CONTINUOUS
 62
     3
 10
4157.124757
 20
2728.707870
 40
54.285714
 50
90.000000
 51
112.350642
  0
LINE
  8
CSLAYER3
  6
CONTINUOUS
 62
     3
 10
4283.269277
 20
2627.340219
 11
4266.299154
 21
2782.993584
  0
INSERT
  8
CSLAYER1
  2
BLKF0001
 10
0.0
 20
0.0
 30
0.0
  0
INSERT
  8
CSLAYER1
  2
BLKF0002
 10
0.0
 20
0.0
 30
0.0
  0
LINE
  8
CSLAYER3
  6
CONTINUOUS
 62
     3
 10
4140.125177
 20
3304.136442
 11
4140.125177
 21
3130.422156
  0
LINE
  8
CSLAYER3
  6
CONTINUOUS
 62
     3
 10
4135.782320
 20
3304.136442
 11
4135.782320
 21
3130.422156
  0
LINE
  8
CSLAYER3
  6
CONTINUOUS
 62
     3
 10
4140.125177
 20
3304.136442
 11
4135.782320
 21
3304.136442
  0
LINE
  8
CSLAYER3
  6
CONTINUOUS
 62
     3
 10
4140.125177
 20
3130.422156
 11
4135.782320
 21
3130.422156
  0
LINE
  8
CSLAYER3
  6
CONTINUOUS
 62
     3
 10
3600.285274
 20
2674.422156
 11
3619.500935
 21
2674.422156
  0
LINE
  8
CSLAYER3
  6
CONTINUOUS
 62
     3
 10
4283.269277
 20
3220.536442
 11
4283.269277
 21
3214.022156
  0
LINE
  8
CSLAYER3
  6
CONTINUOUS
 62
     3
 10
4084.393938
 20
3238.105712
 11
4178.592740
 21
3228.926246
  0
LINE
  8
CSLAYER3
  6
CONTINUOUS
 62
     3
 10
4084.393938
 20
3196.452886
 11
4178.592740
 21
3205.632351
  0
LINE
  8
CSLAYER3
  6
CONTINUOUS
 62
     3
 10
4140.716153
 20
3303.312987
 11
4140.716153
 21
3237.279942
  0
LINE
  8
CSLAYER3
  6
CONTINUOUS
 62
     3
 10
4136.373296
 20
3303.312987
 11
4136.373296
 21
3237.703144
  0
LINE
  8
CSLAYER3
  6
CONTINUOUS
 62
     3
 10
4151.573296
 20
3314.170130
 11
4151.573296
 21
3236.221938
  0
LINE
  8
CSLAYER3
  6
CONTINUOUS
 62
     3
 10
4125.516153
 20
3314.170130
 11
4125.516153
 21
3238.761149
  0
LINE
  8
CSLAYER3
  6
CONTINUOUS
 62
     3
 10
4151.573296
 20
3314.170130
 11
4125.516153
 21
3314.170130
  0
LINE
  8
CSLAYER3
  6
CONTINUOUS
 62
     3
 10
4140.716153
 20
3303.312987
 11
4136.373296
 21
3303.312987
  0
LINE
  8
CSLAYER3
  6
CONTINUOUS
 62
     3
 10
4140.716153
 20
3237.279942
 11
4151.573296
 21
3236.221938
  0
LINE
  8
CSLAYER3
  6
CONTINUOUS
 62
     3
 10
4125.516153
 20
3238.761149
 11
4136.373296
 21
3237.703144
  0
INSERT
  8
CSLAYER1
  2
BLKF0003
 10
0.0
 20
0.0
 30
0.0
  0
LINE
  8
CSLAYER3
  6
CONTINUOUS
 62
     3
 10
3530.833960
 20
2694.701961
 11
3530.833960
 21
2654.141647
  0
LINE
  8
CSLAYER3
  6
CENTER
 62
     7
 10
3429.405587
 20
2674.422156
 11
3792.286921
 21
2674.422156
  0
LINE
  8
CSLAYER3
  6
CENTER
 62
     7
 10
3612.938369
 20
2704.227852
 11
3612.938369
 21
2624.885767
  0
LINE
  8
CSLAYER3
  6
CONTINUOUS
 62
     3
 10
4140.716153
 20
3131.245610
 11
4140.716153
 21
3197.278655
  0
LINE
  8
CSLAYER3
  6
CONTINUOUS
 62
     3
 10
4136.373296
 20
3131.245610
 11
4136.373296
 21
3196.855453
  0
LINE
  8
CSLAYER3
  6
CONTINUOUS
 62
     3
 10
4151.573296
 20
3120.388467
 11
4151.573296
 21
3198.336660
  0
LINE
  8
CSLAYER3
  6
CONTINUOUS
 62
     3
 10
4125.516153
 20
3120.388467
 11
4125.516153
 21
3195.797449
  0
LINE
  8
CSLAYER3
  6
CONTINUOUS
 62
     3
 10
4151.573296
 20
3120.388467
 11
4125.516153
 21
3120.388467
  0
LINE
  8
CSLAYER3
  6
CONTINUOUS
 62
     3
 10
4140.716153
 20
3131.245610
 11
4136.373296
 21
3131.245610
  0
LINE
  8
CSLAYER3
  6
CONTINUOUS
 62
     3
 10
4140.716153
 20
3197.278655
 11
4151.573296
 21
3198.336660
  0
LINE
  8
CSLAYER3
  6
CONTINUOUS
 62
     3
 10
4125.516153
 20
3195.797449
 11
4136.373296
 21
3196.855453
  0
INSERT
  8
CSLAYER1
  2
BLKF0004
 10
0.0
 20
0.0
 30
0.0
  0
ARC
  8
CSLAYER3
  6
CONTINUOUS
 62
     3
 10
3651.685817
 20
2604.557425
 40
86.879767
 50
88.907661
 51
107.434077
  0
ARC
  8
CSLAYER3
  6
CONTINUOUS
 62
     3
 10
3633.319433
 20
2662.041771
 40
26.535094
 50
106.786530
 51
130.089721
  0
ARC
  8
CSLAYER3
  6
CONTINUOUS
 62
     3
 10
3625.952609
 20
2673.573732
 40
13.091606
 50
137.950679
 51
171.638595
  0
ARC
  8
CSLAYER3
  6
CONTINUOUS
 62
     3
 10
3621.981017
 20
2674.422156
 40
9.042648
 50
173.298081
 51
186.701919
  0
ARC
  8
CSLAYER3
  6
CONTINUOUS
 62
     3
 10
3625.952609
 20
2675.270580
 40
13.091606
 50
188.361405
 51
222.049321
  0
ARC
  8
CSLAYER3
  6
CONTINUOUS
 62
     3
 10
3633.319433
 20
2686.802541
 40
26.535094
 50
229.910279
 51
253.213470
  0
ARC
  8
CSLAYER3
  6
CONTINUOUS
 62
     3
 10
3651.685817
 20
2744.286887
 40
86.879767
 50
252.565923
 51
271.092339
  0
ARC
  8
CSLAYER3
  6
CONTINUOUS
 62
     3
 10
3631.753565
 20
3475.290813
 40
818.152781
 50
271.512033
 51
273.819036
  0
LINE
  8
CSLAYER3
  6
CONTINUOUS
 62
     3
 10
3686.246968
 20
2658.954827
 11
3728.933326
 21
2663.406551
  0
LINE
  8
CSLAYER3
  6
CONTINUOUS
 62
     3
 10
3728.933326
 20
2663.406551
 11
3741.518715
 21
2665.293859
  0
LINE
  8
CSLAYER3
  6
CONTINUOUS
 62
     3
 10
3741.518715
 20
2665.293859
 11
3782.055058
 21
2671.913561
  0
LINE
  8
CSLAYER3
  6
CONTINUOUS
 62
     3
 10
3782.055058
 20
2676.930751
 11
3741.518715
 21
2683.550452
  0
LINE
  8
CSLAYER3
  6
CONTINUOUS
 62
     3
 10
3741.518715
 20
2683.550452
 11
3728.933326
 21
2685.437760
  0
LINE
  8
CSLAYER3
  6
CONTINUOUS
 62
     3
 10
3728.933326
 20
2685.437760
 11
3686.246968
 21
2689.889485
  0
ARC
  8
CSLAYER3
  6
CONTINUOUS
 62
     3
 10
3631.753565
 20
1873.553499
 40
818.152781
 50
86.180964
 51
88.487967
  0
ARC
  8
CSLAYER3
  6
CONTINUOUS
 62
     3
 10
3778.802553
 20
2674.422156
 40
3.000000
 50
-80.725302
 51
80.725302
  0
LINE
  8
CSLAYER3
  6
CONTINUOUS
 62
     3
 10
4175.750273
 20
2620.136442
 11
4034.727770
 21
2625.292642
  0
LINE
  8
CSLAYER3
  6
CONTINUOUS
 62
     3
 10
4034.727770
 20
2625.292642
 11
3664.797915
 21
2598.422156
  0
TEXT
  8
CSLAYER3
 62
     3
 10
4246.417616
 20
1992.588861
 40
48.928967
 41
0.636859
  1
18.06dm
 50
0.000000
 51
0.000000
  7
FX_FONT
 72
     5
 11
4454.156603
 21
1992.588861
  0
CIRCLE
  8
CSLAYER3
  6
CONTINUOUS
 62
     3
 10
4137.953749
 20
2674.422156
 40
2.000000
  0
ARC
  8
CSLAYER3
  6
CONTINUOUS
 62
     3
 10
4011.702791
 20
2848.498217
 40
120.000000
 50
264.486471
 51
297.986674
  0
LINE
  8
CSLAYER3
  6
CONTINUOUS
 62
     3
 10
3578.822620
 20
2747.618054
 11
3527.730886
 21
2726.542813
  0
LINE
  8
CSLAYER3
  6
CONTINUOUS
 62
     3
 10
3530.833960
 20
3237.932176
 11
3530.833960
 21
3196.626422
  0
CIRCLE
  8
CSLAYER3
  6
CONTINUOUS
 62
     3
 10
4137.953749
 20
2686.422156
 40
0.500000
  0
ARC
  8
CSLAYER3
  6
CONTINUOUS
 62
     3
 10
4137.953749
 20
2686.422156
 40
3.500000
 50
0.000000
 51
180.000000
  0
LINE
  8
CSLAYER3
  6
CONTINUOUS
 62
     3
 10
4141.453749
 20
2686.422156
 11
4141.453749
 21
2674.422156
  0
LINE
  8
CSLAYER3
  6
CONTINUOUS
 62
     3
 10
4134.453749
 20
2686.422156
 11
4134.453749
 21
2674.422156
  0
ARC
  8
CSLAYER3
  6
CONTINUOUS
 62
     3
 10
4137.953749
 20
2674.422156
 40
3.500000
 50
180.000000
 51
360.000000
  0
LINE
  8
CSLAYER3
  6
CONTINUOUS
 62
     3
 10
4176.669695
 20
2651.890892
 11
4186.488438
 21
2651.890892
  0
LINE
  8
CSLAYER3
  6
CONTINUOUS
 62
     3
 10
4186.488438
 20
2651.890892
 11
4186.488438
 21
2636.135234
  0
LINE
  8
CSLAYER3
  6
CONTINUOUS
 62
     3
 10
4186.488438
 20
2636.135234
 11
4176.669695
 21
2636.135234
  0
LINE
  8
CSLAYER3
  6
CONTINUOUS
 62
     3
 10
4176.669695
 20
2636.135234
 11
4176.669695
 21
2651.890892
  0
CIRCLE
  8
CSLAYER3
  6
CONTINUOUS
 62
     3
 10
3782.055058
 20
2686.422156
 40
1.000000
  0
ARC
  8
CSLAYER3
  6
CONTINUOUS
 62
     3
 10
3782.055058
 20
2686.422156
 40
3.000000
 50
42.099647
 51
270.000000
  0
LINE
  8
CSLAYER3
  6
CONTINUOUS
 62
     3
 10
3795.222946
 20
2676.323578
 11
3784.280998
 21
2688.433422
  0
LINE
  8
CSLAYER3
  6
CONTINUOUS
 62
     3
 10
3782.055058
 20
2683.422156
 11
3782.055058
 21
2676.593584
  0
LINE
  8
CSLAYER3
  6
CONTINUOUS
 62
     3
 10
4175.750273
 20
3220.536442
 11
4175.750273
 21
3210.279299
  0
CIRCLE
  8
CSLAYER3
  6
CONTINUOUS
 62
     3
 10
4175.750273
 20
3206.279299
 40
1.000000
  0
ARC
  8
CSLAYER3
  6
CONTINUOUS
 62
     3
 10
4175.750273
 20
3206.279299
 40
4.000000
 50
90.000000
 51
320.352925
  0
LINE
  8
CSLAYER3
  6
CONTINUOUS
 62
     3
 10
4187.401810
 20
3214.071015
 11
4178.830230
 21
3203.727071
  0
LINE
  8
CSLAYER3
  6
CENTER
 62
     7
 10
3776.555917
 20
2686.422156
 11
3787.973060
 21
2686.422156
  0
LINE
  8
CSLAYER3
  6
CONTINUOUS
 62
     3
 10
3699.133629
 20
3241.165013
 11
3699.133629
 21
3193.393584
  0
CIRCLE
  8
CSLAYER3
  6
CONTINUOUS
 62
     3
 10
3699.133629
 20
3217.279299
 40
10.000000
  0
INSERT
  8
CSLAYER1
  2
BLKF0005
 10
0.0
 20
0.0
 30
0.0
  0
LINE
  8
CSLAYER3
  6
CONTINUOUS
 62
     3
 10
3612.683629
 20
3565.793584
 11
3782.055058
 21
3565.793584
  0
LINE
  8
CSLAYER3
  6
CONTINUOUS
 62
     3
 10
3612.683629
 20
3324.765013
 11
3782.055058
 21
3324.765013
  0
LINE
  8
CSLAYER3
  6
CONTINUOUS
 62
     3
 10
3612.683629
 20
3405.107870
 11
3782.055058
 21
3405.107870
  0
LINE
  8
CSLAYER3
  6
CONTINUOUS
 62
     3
 10
3612.683629
 20
3485.450727
 11
3782.055058
 21
3485.450727
  0
INSERT
  8
CSLAYER1
  2
BLKF0006
 10
0.0
 20
0.0
 30
0.0
  0
ENDSEC
  0
EOF
