  0
SECTION
  2
HEADER
  9
$ACADVER
  1
AC1006
  9
$INSBASE
 10
2339.497731
 20
1814.051770
 30
0.0
  9
$EXTMIN
 10
2339.497731
 20
1814.051770
  9
$EXTMAX
 10
5203.523941
 20
3839.327448
  9
$LIMMIN
 10
2339.497731
 20
1814.051770
  9
$LIMMAX
 10
5203.523941
 20
3839.327448
  9
$VIEWCTR
 10
3771.510836
 20
2826.689609
  9
$VIEWSIZE
 40
2025.275677
  9
$SNAPMODE
 70
     0
  9
$SNAPUNIT
 10
1.0
 20
1.0
  9
$SNAPBASE
 10
0.0
 20
0.0
  9
$SNAPANG
 50
0.0
  9
$SNAPSTYLE
 70
     0
  9
$SNAPISOPAIR
 70
     0
  9
$GRIDMODE
 70
     0
  9
$GRIDUNIT
 10
0.0
 20
0.0
  9
$ORTHOMODE
 70
     0
  9
$REGENMODE
 70
     1
  9
$FILLMODE
 70
     1
  9
$QTEXTMODE
 70
     0
  9
$DRAGMODE
 70
     2
  9
$LTSCALE
 40
15.000000
  9
$OSMODE
 70
     0
  9
$ATTMODE
 70
     1
  9
$TEXTSIZE
 40
0.2
  9
$TRACEWID
 40
0.05
  9
$TEXTSTYLE
  7
STANDARD
  9
$CLAYER
  8
CSLAYER3
  9
$CELTYPE
  6
BYLAYER
  9
$CECOLOR
 62
   256
  9
$DIMSCALE
 40
1.0
  9
$DIMASZ
 40
0.18
  9
$DIMEXO
 40
0.0625
  9
$DIMDLI
 40
0.38
  9
$DIMRND
 40
0.0
  9
$DIMDLE
 40
0.0
  9
$DIMEXE
 40
0.18
  9
$DIMTP
 40
0.0
  9
$DIMTM
 40
0.0
  9
$DIMTXT
 40
0.18
  9
$DIMCEN
 40
0.09
  9
$DIMTSZ
 40
0.0
  9
$DIMTOL
 70
     0
  9
$DIMLIM
 70
     0
  9
$DIMTIH
 70
     1
  9
$DIMTOH
 70
     1
  9
$DIMSE1
 70
     0
  9
$DIMSE2
 70
     0
  9
$DIMTAD
 70
     0
  9
$DIMZIN
 70
     0
  9
$DIMBLK
  1

  9
$LUNITS
 70
     2
  9
$LUPREC
 70
     4
  9
$AXISMODE
 70
     0
  9
$AXISUNIT
 10
0.0
 20
0.0
  9
$SKETCHINC
 40
0.1
  9
$FILLETRAD
 40
0.0
  9
$AUNITS
 70
     0
  9
$AUPREC
 70
     0
  9
$MENU
  1
ACAD
  9
$ELEVATION
 40
0.0
  9
$THICKNESS
 40
0.0
  9
$VIEWDIR
 10
0.0
 20
0.0
 30
1.0
  9
$LIMCHECK
 70
     0
  9
$BLIPMODE
 70
     1
  9
$CHAMFERA
 40
0.0
  9
$CHAMFERB
 40
0.0
  9
$FASTZOOM
 70
     1
  9
$SKPOLY
 70
     0
  9
$TDCREATE
 40
2453187.000000
  9
$TDUPDATE
 40
2453187.000000
  9
$TDINDWG
 40
0.0
  9
$TDUSRTIMER
 40
0.0
  9
$USRTIMER
 70
     1
  9
$ANGBASE
 50
0.0
  9
$ANGDIR
 70
     0
  9
$PDMODE
 70
     0
  9
$PDSIZE
 40
0.0
  9
$PLINEWID
 40
0.0
  9
$COORDS
 70
     0
  9
$USERI1
 70
     0
  9
$USERI2
 70
     0
  9
$USERI3
 70
     0
  9
$USERI4
 70
     0
  9
$USERI5
 70
     0
  9
$USERR1
 40
0.0
  9
$USERR2
 40
0.0
  9
$USERR3
 40
0.0
  9
$USERR4
 40
0.0
  9
$USERR5
 40
0.0
  0
ENDSEC
  0
SECTION
  2
TABLES
  0
TABLE
  2
LTYPE
 70
     9
  0
LTYPE
  2
CONTINUOUS
 70
    64
  3
Solid line
 72
    65
 73
     0
 40
0.0
  0
LTYPE
  2
DASHED
 70
    64
  3
__ __ __ __ __ __ __ __ __ __ __ __ __ __ __
 72
    65
 73
     2
 40
0.75
 49
0.5
 49
-0.25
  0
LTYPE
  2
HIDDEN
 70
    64
  3
_ _ _ _ _ _ _ _ _ _ _ _ _ _ _ _ _ _ _ _ _ _ _
 72
    65
 73
     2
 40
0.375
 49
0.25
 49
-0.125
  0
LTYPE
  2
DOT
 70
    64
  3
...............................................
 72
    65
 73
     2
 40
0.25
 49
0.0
 49
-0.25
  0
LTYPE
  2
DASHDOT
 70
    64
  3
__ . __ . __ . __ . __ . __ . __ . __ . __ . __
 72
    65
 73
     4
 40
1.0
 49
0.5
 49
-0.25
 49
0.0
 49
-0.25
  0
LTYPE
  2
DIVIDE
 70
    64
  3
__ . . __ . . __ . . __ . . __ . . __ . . __
 72
    65
 73
     6
 40
1.25
 49
0.5
 49
-0.25
 49
0.0
 49
-0.25
 49
0.0
 49
-0.25
  0
LTYPE
  2
CENTER
 70
    64
  3
____ _ ____ _ ____ _ ____ _ ____ _ ____ _ ____ 
 72
    65
 73
     4
 40
2.0
 49
1.25
 49
-0.25
 49
0.25
 49
-0.25
  0
LTYPE
  2
PHANTOM
 70
    64
  3
______  __  __  ______  __  __  ______  __  __ 
 72
    65
 73
     6
 40
2.5
 49
1.25
 49
-0.25
 49
0.25
 49
-0.25
 49
0.25
 49
-0.25
  0
LTYPE
  2
BORDER
 70
    64
  3
__ __ . __ __ . __ __ . __ __ . __ __ . __ __ .
 72
    65
 73
     6
 40
1.75
 49
0.5
 49
-0.25
 49
0.5
 49
-0.25
 49
0.0
 49
-0.25
  0
ENDTAB
  0
TABLE
  2
LAYER
 70
    16
  0
LAYER
  2
CSLAYER1
 70
    64
 62
     7
  6
CONTINUOUS
  0
LAYER
  2
CSLAYER2
 70
    64
 62
     7
  6
CONTINUOUS
  0
LAYER
  2
CSLAYER3
 70
    64
 62
     7
  6
CONTINUOUS
  0
LAYER
  2
CSLAYER4
 70
    64
 62
     7
  6
CONTINUOUS
  0
LAYER
  2
CSLAYER5
 70
    64
 62
     7
  6
CONTINUOUS
  0
LAYER
  2
CSLAYER6
 70
    64
 62
     7
  6
CONTINUOUS
  0
LAYER
  2
CSLAYER7
 70
    64
 62
     7
  6
CONTINUOUS
  0
LAYER
  2
CSLAYER8
 70
    64
 62
     7
  6
CONTINUOUS
  0
LAYER
  2
CSLAYER9
 70
    64
 62
     7
  6
CONTINUOUS
  0
LAYER
  2
CSLAYER10
 70
    64
 62
     7
  6
CONTINUOUS
  0
LAYER
  2
CSLAYER11
 70
    64
 62
     7
  6
CONTINUOUS
  0
LAYER
  2
CSLAYER12
 70
    64
 62
     7
  6
CONTINUOUS
  0
LAYER
  2
CSLAYER13
 70
    64
 62
     7
  6
CONTINUOUS
  0
LAYER
  2
CSLAYER14
 70
    64
 62
     7
  6
CONTINUOUS
  0
LAYER
  2
CSLAYER15
 70
    64
 62
     7
  6
CONTINUOUS
  0
LAYER
  2
CSLAYER16
 70
    64
 62
     7
  6
CONTINUOUS
  0
ENDTAB
  0
TABLE
  2
STYLE
 70
     1
  0
STYLE
  2
FX_FONT
 70
     0
 40
1.0
 41
1.0
 50
0.0
 71
     0
 42
1.0
  3
monotxt
  4
bigfont
  0
ENDTAB
  0
TABLE
  2
VIEW
 70
     0
  0
ENDTAB
  0
ENDSEC
  0
SECTION
  2
BLOCKS
  0
BLOCK
  8
CSLAYER1
  2
BLKF0000
 70
   64
 10
0.0
 20
0.0
 30
0.0
  0
LINE
  8
CSLAYER3
  6
CONTINUOUS
 62
     3
 10
3520.386832
 20
3506.357624
 11
3657.186832
 21
3506.357624
  0
LINE
  8
CSLAYER3
  6
CONTINUOUS
 62
     3
 10
3520.386832
 20
2746.357624
 11
3657.186832
 21
2746.357624
  0
LINE
  8
CSLAYER3
  6
CONTINUOUS
 62
     3
 10
3657.186832
 20
3506.357624
 11
3657.186832
 21
2746.357624
  0
LINE
  8
CSLAYER3
  6
CONTINUOUS
 62
     3
 10
3487.815403
 20
3473.786196
 11
3487.815403
 21
2778.929053
  0
ARC
  8
CSLAYER3
  6
CONTINUOUS
 62
     3
 10
3520.386832
 20
2778.929053
 40
32.571429
 50
180.000000
 51
270.000000
  0
ARC
  8
CSLAYER3
  6
CONTINUOUS
 62
     3
 10
3520.386832
 20
3473.786196
 40
32.571429
 50
90.000000
 51
180.000000
  0
ENDBLK
  8
0
  0
BLOCK
  8
CSLAYER1
  2
BLKF0001
 70
   64
 10
0.0
 20
0.0
 30
0.0
  0
LINE
  8
CSLAYER3
  6
CONTINUOUS
 62
     3
 10
3564.274127
 20
3125.940019
 11
3574.265403
 21
3125.940019
  0
LINE
  8
CSLAYER3
  6
CONTINUOUS
 62
     3
 10
3564.267771
 20
3126.140019
 11
3574.265403
 21
3126.140019
  0
LINE
  8
CSLAYER3
  6
CONTINUOUS
 62
     3
 10
3564.265419
 20
3126.340019
 11
3574.265403
 21
3126.340019
  0
LINE
  8
CSLAYER3
  6
CONTINUOUS
 62
     3
 10
3574.265403
 20
3126.540019
 11
3584.263740
 21
3126.540019
  0
LINE
  8
CSLAYER3
  6
CONTINUOUS
 62
     3
 10
3574.265403
 20
3126.740019
 11
3584.258089
 21
3126.740019
  0
LINE
  8
CSLAYER3
  6
CONTINUOUS
 62
     3
 10
3574.265403
 20
3126.940019
 11
3584.248430
 21
3126.940019
  0
LINE
  8
CSLAYER3
  6
CONTINUOUS
 62
     3
 10
3574.265403
 20
3127.140019
 11
3584.234749
 21
3127.140019
  0
LINE
  8
CSLAYER3
  6
CONTINUOUS
 62
     3
 10
3574.265403
 20
3127.340019
 11
3584.217032
 21
3127.340019
  0
LINE
  8
CSLAYER3
  6
CONTINUOUS
 62
     3
 10
3574.265403
 20
3127.540019
 11
3584.195255
 21
3127.540019
  0
LINE
  8
CSLAYER3
  6
CONTINUOUS
 62
     3
 10
3574.265403
 20
3127.740019
 11
3584.169392
 21
3127.740019
  0
LINE
  8
CSLAYER3
  6
CONTINUOUS
 62
     3
 10
3574.265403
 20
3127.940019
 11
3584.139411
 21
3127.940019
  0
LINE
  8
CSLAYER3
  6
CONTINUOUS
 62
     3
 10
3574.265403
 20
3128.140019
 11
3584.105275
 21
3128.140019
  0
LINE
  8
CSLAYER3
  6
CONTINUOUS
 62
     3
 10
3574.265403
 20
3128.340019
 11
3584.066940
 21
3128.340019
  0
LINE
  8
CSLAYER3
  6
CONTINUOUS
 62
     3
 10
3574.265403
 20
3128.540019
 11
3584.024356
 21
3128.540019
  0
LINE
  8
CSLAYER3
  6
CONTINUOUS
 62
     3
 10
3574.265403
 20
3128.740019
 11
3583.977468
 21
3128.740019
  0
LINE
  8
CSLAYER3
  6
CONTINUOUS
 62
     3
 10
3574.265403
 20
3128.940019
 11
3583.926213
 21
3128.940019
  0
LINE
  8
CSLAYER3
  6
CONTINUOUS
 62
     3
 10
3574.265403
 20
3129.140019
 11
3583.870521
 21
3129.140019
  0
LINE
  8
CSLAYER3
  6
CONTINUOUS
 62
     3
 10
3574.265403
 20
3129.340019
 11
3583.810314
 21
3129.340019
  0
LINE
  8
CSLAYER3
  6
CONTINUOUS
 62
     3
 10
3574.265403
 20
3129.540019
 11
3583.745507
 21
3129.540019
  0
LINE
  8
CSLAYER3
  6
CONTINUOUS
 62
     3
 10
3574.265403
 20
3129.740019
 11
3583.676004
 21
3129.740019
  0
LINE
  8
CSLAYER3
  6
CONTINUOUS
 62
     3
 10
3574.265403
 20
3129.940019
 11
3583.601701
 21
3129.940019
  0
LINE
  8
CSLAYER3
  6
CONTINUOUS
 62
     3
 10
3574.265403
 20
3130.140019
 11
3583.522482
 21
3130.140019
  0
LINE
  8
CSLAYER3
  6
CONTINUOUS
 62
     3
 10
3574.265403
 20
3130.340019
 11
3583.438219
 21
3130.340019
  0
LINE
  8
CSLAYER3
  6
CONTINUOUS
 62
     3
 10
3574.265403
 20
3130.540019
 11
3583.348772
 21
3130.540019
  0
LINE
  8
CSLAYER3
  6
CONTINUOUS
 62
     3
 10
3574.265403
 20
3130.740019
 11
3583.253986
 21
3130.740019
  0
LINE
  8
CSLAYER3
  6
CONTINUOUS
 62
     3
 10
3574.265403
 20
3130.940019
 11
3583.153691
 21
3130.940019
  0
LINE
  8
CSLAYER3
  6
CONTINUOUS
 62
     3
 10
3574.265403
 20
3131.140019
 11
3583.047698
 21
3131.140019
  0
LINE
  8
CSLAYER3
  6
CONTINUOUS
 62
     3
 10
3574.265403
 20
3131.340019
 11
3582.935798
 21
3131.340019
  0
LINE
  8
CSLAYER3
  6
CONTINUOUS
 62
     3
 10
3574.265403
 20
3131.540019
 11
3582.817759
 21
3131.540019
  0
LINE
  8
CSLAYER3
  6
CONTINUOUS
 62
     3
 10
3574.265403
 20
3131.740019
 11
3582.693323
 21
3131.740019
  0
LINE
  8
CSLAYER3
  6
CONTINUOUS
 62
     3
 10
3574.265403
 20
3131.940019
 11
3582.562203
 21
3131.940019
  0
LINE
  8
CSLAYER3
  6
CONTINUOUS
 62
     3
 10
3574.265403
 20
3132.140019
 11
3582.424075
 21
3132.140019
  0
LINE
  8
CSLAYER3
  6
CONTINUOUS
 62
     3
 10
3574.265403
 20
3132.340019
 11
3582.278578
 21
3132.340019
  0
LINE
  8
CSLAYER3
  6
CONTINUOUS
 62
     3
 10
3574.265403
 20
3132.540019
 11
3582.125302
 21
3132.540019
  0
LINE
  8
CSLAYER3
  6
CONTINUOUS
 62
     3
 10
3574.265403
 20
3132.740019
 11
3581.963783
 21
3132.740019
  0
LINE
  8
CSLAYER3
  6
CONTINUOUS
 62
     3
 10
3574.265403
 20
3132.940019
 11
3581.793490
 21
3132.940019
  0
LINE
  8
CSLAYER3
  6
CONTINUOUS
 62
     3
 10
3574.265403
 20
3133.140019
 11
3581.613813
 21
3133.140019
  0
LINE
  8
CSLAYER3
  6
CONTINUOUS
 62
     3
 10
3574.265403
 20
3133.340019
 11
3581.424047
 21
3133.340019
  0
LINE
  8
CSLAYER3
  6
CONTINUOUS
 62
     3
 10
3574.265403
 20
3133.540019
 11
3581.223364
 21
3133.540019
  0
LINE
  8
CSLAYER3
  6
CONTINUOUS
 62
     3
 10
3574.265403
 20
3133.740019
 11
3581.010791
 21
3133.740019
  0
LINE
  8
CSLAYER3
  6
CONTINUOUS
 62
     3
 10
3574.265403
 20
3133.940019
 11
3580.785166
 21
3133.940019
  0
LINE
  8
CSLAYER3
  6
CONTINUOUS
 62
     3
 10
3574.265403
 20
3134.140019
 11
3580.545080
 21
3134.140019
  0
LINE
  8
CSLAYER3
  6
CONTINUOUS
 62
     3
 10
3574.265403
 20
3134.340019
 11
3580.288806
 21
3134.340019
  0
LINE
  8
CSLAYER3
  6
CONTINUOUS
 62
     3
 10
3574.265403
 20
3134.540019
 11
3580.014180
 21
3134.540019
  0
LINE
  8
CSLAYER3
  6
CONTINUOUS
 62
     3
 10
3574.265403
 20
3134.740019
 11
3579.718427
 21
3134.740019
  0
LINE
  8
CSLAYER3
  6
CONTINUOUS
 62
     3
 10
3574.265403
 20
3134.940019
 11
3579.397899
 21
3134.940019
  0
LINE
  8
CSLAYER3
  6
CONTINUOUS
 62
     3
 10
3574.265403
 20
3135.140019
 11
3579.047616
 21
3135.140019
  0
LINE
  8
CSLAYER3
  6
CONTINUOUS
 62
     3
 10
3574.265403
 20
3135.340019
 11
3578.660468
 21
3135.340019
  0
LINE
  8
CSLAYER3
  6
CONTINUOUS
 62
     3
 10
3574.265403
 20
3135.540019
 11
3578.225661
 21
3135.540019
  0
LINE
  8
CSLAYER3
  6
CONTINUOUS
 62
     3
 10
3574.265403
 20
3135.740019
 11
3577.725271
 21
3135.740019
  0
LINE
  8
CSLAYER3
  6
CONTINUOUS
 62
     3
 10
3574.265403
 20
3135.940019
 11
3577.125075
 21
3135.940019
  0
LINE
  8
CSLAYER3
  6
CONTINUOUS
 62
     3
 10
3574.265403
 20
3136.140019
 11
3576.340196
 21
3136.140019
  0
LINE
  8
CSLAYER3
  6
CONTINUOUS
 62
     3
 10
3574.265403
 20
3136.340019
 11
3574.858537
 21
3136.340019
  0
LINE
  8
CSLAYER3
  6
CONTINUOUS
 62
     3
 10
3564.284493
 20
3125.740019
 11
3574.265403
 21
3125.740019
  0
LINE
  8
CSLAYER3
  6
CONTINUOUS
 62
     3
 10
3564.298883
 20
3125.540019
 11
3574.265403
 21
3125.540019
  0
LINE
  8
CSLAYER3
  6
CONTINUOUS
 62
     3
 10
3564.317314
 20
3125.340019
 11
3574.265403
 21
3125.340019
  0
LINE
  8
CSLAYER3
  6
CONTINUOUS
 62
     3
 10
3564.339808
 20
3125.140019
 11
3574.265403
 21
3125.140019
  0
LINE
  8
CSLAYER3
  6
CONTINUOUS
 62
     3
 10
3564.366394
 20
3124.940019
 11
3574.265403
 21
3124.940019
  0
LINE
  8
CSLAYER3
  6
CONTINUOUS
 62
     3
 10
3564.397103
 20
3124.740019
 11
3574.265403
 21
3124.740019
  0
LINE
  8
CSLAYER3
  6
CONTINUOUS
 62
     3
 10
3564.431975
 20
3124.540019
 11
3574.265403
 21
3124.540019
  0
LINE
  8
CSLAYER3
  6
CONTINUOUS
 62
     3
 10
3564.471055
 20
3124.340019
 11
3574.265403
 21
3124.340019
  0
LINE
  8
CSLAYER3
  6
CONTINUOUS
 62
     3
 10
3564.514392
 20
3124.140019
 11
3574.265403
 21
3124.140019
  0
LINE
  8
CSLAYER3
  6
CONTINUOUS
 62
     3
 10
3564.562044
 20
3123.940019
 11
3574.265403
 21
3123.940019
  0
LINE
  8
CSLAYER3
  6
CONTINUOUS
 62
     3
 10
3564.614075
 20
3123.740019
 11
3574.265403
 21
3123.740019
  0
LINE
  8
CSLAYER3
  6
CONTINUOUS
 62
     3
 10
3564.670556
 20
3123.540019
 11
3574.265403
 21
3123.540019
  0
LINE
  8
CSLAYER3
  6
CONTINUOUS
 62
     3
 10
3564.731566
 20
3123.340019
 11
3574.265403
 21
3123.340019
  0
LINE
  8
CSLAYER3
  6
CONTINUOUS
 62
     3
 10
3564.797193
 20
3123.140019
 11
3574.265403
 21
3123.140019
  0
LINE
  8
CSLAYER3
  6
CONTINUOUS
 62
     3
 10
3564.867533
 20
3122.940019
 11
3574.265403
 21
3122.940019
  0
LINE
  8
CSLAYER3
  6
CONTINUOUS
 62
     3
 10
3564.942693
 20
3122.740019
 11
3574.265403
 21
3122.740019
  0
LINE
  8
CSLAYER3
  6
CONTINUOUS
 62
     3
 10
3565.022791
 20
3122.540019
 11
3574.265403
 21
3122.540019
  0
LINE
  8
CSLAYER3
  6
CONTINUOUS
 62
     3
 10
3565.107956
 20
3122.340019
 11
3574.265403
 21
3122.340019
  0
LINE
  8
CSLAYER3
  6
CONTINUOUS
 62
     3
 10
3565.198331
 20
3122.140019
 11
3574.265403
 21
3122.140019
  0
LINE
  8
CSLAYER3
  6
CONTINUOUS
 62
     3
 10
3565.294074
 20
3121.940019
 11
3574.265403
 21
3121.940019
  0
LINE
  8
CSLAYER3
  6
CONTINUOUS
 62
     3
 10
3565.395357
 20
3121.740019
 11
3574.265403
 21
3121.740019
  0
LINE
  8
CSLAYER3
  6
CONTINUOUS
 62
     3
 10
3565.502375
 20
3121.540019
 11
3574.265403
 21
3121.540019
  0
LINE
  8
CSLAYER3
  6
CONTINUOUS
 62
     3
 10
3565.615338
 20
3121.340019
 11
3574.265403
 21
3121.340019
  0
LINE
  8
CSLAYER3
  6
CONTINUOUS
 62
     3
 10
3565.734484
 20
3121.140019
 11
3574.265403
 21
3121.140019
  0
LINE
  8
CSLAYER3
  6
CONTINUOUS
 62
     3
 10
3565.860075
 20
3120.940019
 11
3574.265403
 21
3120.940019
  0
LINE
  8
CSLAYER3
  6
CONTINUOUS
 62
     3
 10
3565.992405
 20
3120.740019
 11
3574.265403
 21
3120.740019
  0
LINE
  8
CSLAYER3
  6
CONTINUOUS
 62
     3
 10
3566.131803
 20
3120.540019
 11
3574.265403
 21
3120.540019
  0
LINE
  8
CSLAYER3
  6
CONTINUOUS
 62
     3
 10
3566.278638
 20
3120.340019
 11
3574.265403
 21
3120.340019
  0
LINE
  8
CSLAYER3
  6
CONTINUOUS
 62
     3
 10
3566.433330
 20
3120.140019
 11
3574.265403
 21
3120.140019
  0
LINE
  8
CSLAYER3
  6
CONTINUOUS
 62
     3
 10
3566.596353
 20
3119.940019
 11
3574.265403
 21
3119.940019
  0
LINE
  8
CSLAYER3
  6
CONTINUOUS
 62
     3
 10
3566.768251
 20
3119.740019
 11
3574.265403
 21
3119.740019
  0
LINE
  8
CSLAYER3
  6
CONTINUOUS
 62
     3
 10
3566.949650
 20
3119.540019
 11
3574.265403
 21
3119.540019
  0
LINE
  8
CSLAYER3
  6
CONTINUOUS
 62
     3
 10
3567.141275
 20
3119.340019
 11
3574.265403
 21
3119.340019
  0
LINE
  8
CSLAYER3
  6
CONTINUOUS
 62
     3
 10
3567.343975
 20
3119.140019
 11
3574.265403
 21
3119.140019
  0
LINE
  8
CSLAYER3
  6
CONTINUOUS
 62
     3
 10
3567.558756
 20
3118.940019
 11
3574.265403
 21
3118.940019
  0
LINE
  8
CSLAYER3
  6
CONTINUOUS
 62
     3
 10
3567.786817
 20
3118.740019
 11
3574.265403
 21
3118.740019
  0
LINE
  8
CSLAYER3
  6
CONTINUOUS
 62
     3
 10
3568.029617
 20
3118.540019
 11
3574.265403
 21
3118.540019
  0
LINE
  8
CSLAYER3
  6
CONTINUOUS
 62
     3
 10
3568.288950
 20
3118.340019
 11
3574.265403
 21
3118.340019
  0
LINE
  8
CSLAYER3
  6
CONTINUOUS
 62
     3
 10
3568.567074
 20
3118.140019
 11
3574.265403
 21
3118.140019
  0
LINE
  8
CSLAYER3
  6
CONTINUOUS
 62
     3
 10
3568.866893
 20
3117.940019
 11
3574.265403
 21
3117.940019
  0
LINE
  8
CSLAYER3
  6
CONTINUOUS
 62
     3
 10
3569.192252
 20
3117.740019
 11
3574.265403
 21
3117.740019
  0
LINE
  8
CSLAYER3
  6
CONTINUOUS
 62
     3
 10
3569.548431
 20
3117.540019
 11
3574.265403
 21
3117.540019
  0
LINE
  8
CSLAYER3
  6
CONTINUOUS
 62
     3
 10
3569.943045
 20
3117.340019
 11
3574.265403
 21
3117.340019
  0
LINE
  8
CSLAYER3
  6
CONTINUOUS
 62
     3
 10
3570.387809
 20
3117.140019
 11
3574.265403
 21
3117.140019
  0
LINE
  8
CSLAYER3
  6
CONTINUOUS
 62
     3
 10
3570.902562
 20
3116.940019
 11
3574.265403
 21
3116.940019
  0
LINE
  8
CSLAYER3
  6
CONTINUOUS
 62
     3
 10
3571.526488
 20
3116.740019
 11
3574.265403
 21
3116.740019
  0
LINE
  8
CSLAYER3
  6
CONTINUOUS
 62
     3
 10
3572.364189
 20
3116.540019
 11
3574.265403
 21
3116.540019
  0
ENDBLK
  8
0
  0
BLOCK
  8
CSLAYER1
  2
BLKF0002
 70
   64
 10
0.0
 20
0.0
 30
0.0
  0
LINE
  8
CSLAYER3
  6
CONTINUOUS
 62
     3
 10
4050.820257
 20
2692.071910
 11
4050.820257
 21
2522.071910
  0
ARC
  8
CSLAYER3
  6
CONTINUOUS
 62
     3
 10
4050.820257
 20
2637.786196
 40
54.285714
 50
90.000000
 51
112.350642
  0
LINE
  8
CSLAYER3
  6
CONTINUOUS
 62
     3
 10
4030.176824
 20
2687.993640
 11
3957.943039
 21
2649.607803
  0
LINE
  8
CSLAYER3
  6
CONTINUOUS
 62
     3
 10
4050.820257
 20
2522.071910
 11
3909.797754
 21
2527.228111
  0
ARC
  8
CSLAYER3
  6
CONTINUOUS
 62
     3
 10
3901.631096
 20
2755.574614
 40
120.000000
 50
261.835829
 51
297.986674
  0
CIRCLE
  8
CSLAYER3
  6
CONTINUOUS
 62
     3
 10
4013.023733
 20
2583.500482
 40
2.000000
  0
LINE
  8
CSLAYER3
  6
CONTINUOUS
 62
     3
 10
3909.797754
 20
2527.228111
 11
3539.867898
 21
2498.842567
  0
LINE
  8
CSLAYER3
  6
CONTINUOUS
 62
     3
 10
3884.589901
 20
2636.790786
 11
3595.174368
 21
2678.311476
  0
LINE
  8
CSLAYER3
  6
CONTINUOUS
 62
     3
 10
3503.481407
 20
2676.040443
 11
3595.174368
 21
2678.311476
  0
LINE
  8
CSLAYER3
  6
CONTINUOUS
 62
     3
 10
3465.632902
 20
2669.841843
 11
3503.481407
 21
2676.040443
  0
LINE
  8
CSLAYER3
  6
CONTINUOUS
 62
     3
 10
3465.632902
 20
2669.841843
 11
3382.079560
 21
2624.166523
  0
LINE
  8
CSLAYER3
  6
CONTINUOUS
 62
     3
 10
3423.509233
 20
2645.572161
 11
3451.197660
 21
2630.274797
  0
LINE
  8
CSLAYER3
  6
CONTINUOUS
 62
     3
 10
3451.197660
 20
2630.274797
 11
3588.346279
 21
2625.316732
  0
LINE
  8
CSLAYER3
  6
CONTINUOUS
 62
     3
 10
3588.346279
 20
2625.316732
 11
3658.561929
 21
2631.002210
  0
LINE
  8
CSLAYER3
  6
CONTINUOUS
 62
     3
 10
3696.927895
 20
2651.098668
 11
3658.561929
 21
2631.002210
  0
LINE
  8
CSLAYER3
  6
CONTINUOUS
 62
     3
 10
3706.317687
 20
2662.366419
 11
3696.927895
 21
2651.098668
  0
LINE
  8
CSLAYER3
  6
CONTINUOUS
 62
     3
 10
3382.079560
 20
2624.166523
 11
3382.079560
 21
2538.723963
  0
LINE
  8
CSLAYER3
  6
CONTINUOUS
 62
     3
 10
3382.079560
 20
2538.723963
 11
3465.375379
 21
2498.842567
  0
LINE
  8
CSLAYER3
  6
CONTINUOUS
 62
     3
 10
3465.375379
 20
2498.842567
 11
3539.867898
 21
2498.842567
  0
ARC
  8
CSLAYER3
  6
CONTINUOUS
 62
     3
 10
3526.755801
 20
2513.635751
 40
86.879767
 50
88.907661
 51
107.434077
  0
ARC
  8
CSLAYER3
  6
CONTINUOUS
 62
     3
 10
3508.389417
 20
2571.120096
 40
26.535094
 50
106.786530
 51
130.089721
  0
ARC
  8
CSLAYER3
  6
CONTINUOUS
 62
     3
 10
3501.022593
 20
2582.652058
 40
13.091606
 50
137.950679
 51
171.638595
  0
ARC
  8
CSLAYER3
  6
CONTINUOUS
 62
     3
 10
3508.389417
 20
2595.880867
 40
26.535094
 50
229.910279
 51
253.213470
  0
ARC
  8
CSLAYER3
  6
CONTINUOUS
 62
     3
 10
3501.022593
 20
2584.348905
 40
13.091606
 50
188.361405
 51
222.049321
  0
ARC
  8
CSLAYER3
  6
CONTINUOUS
 62
     3
 10
3526.755801
 20
2653.365212
 40
86.879767
 50
252.565923
 51
271.092339
  0
ARC
  8
CSLAYER3
  6
CONTINUOUS
 62
     3
 10
3506.823549
 20
3384.369138
 40
818.152781
 50
271.512033
 51
273.819036
  0
LINE
  8
CSLAYER3
  6
CONTINUOUS
 62
     3
 10
3561.316951
 20
2568.033152
 11
3604.003309
 21
2572.484877
  0
LINE
  8
CSLAYER3
  6
CONTINUOUS
 62
     3
 10
3604.003309
 20
2572.484877
 11
3616.588699
 21
2574.372185
  0
LINE
  8
CSLAYER3
  6
CONTINUOUS
 62
     3
 10
3616.588699
 20
2574.372185
 11
3654.356041
 21
2580.539701
  0
LINE
  8
CSLAYER3
  6
CONTINUOUS
 62
     3
 10
3654.356041
 20
2586.461263
 11
3616.588699
 21
2592.628778
  0
LINE
  8
CSLAYER3
  6
CONTINUOUS
 62
     3
 10
3604.003309
 20
2594.516086
 11
3561.316951
 21
2598.967811
  0
LINE
  8
CSLAYER3
  6
CONTINUOUS
 62
     3
 10
3616.588699
 20
2592.628778
 11
3604.003309
 21
2594.516086
  0
LINE
  8
CSLAYER3
  6
CONTINUOUS
 62
     3
 10
3526.843965
 20
2597.515472
 11
3526.843965
 21
2569.485492
  0
LINE
  8
CSLAYER3
  6
CONTINUOUS
 62
     3
 10
3529.558251
 20
2597.467507
 11
3529.558251
 21
2569.533456
  0
ARC
  8
CSLAYER3
  6
CONTINUOUS
 62
     3
 10
3497.051000
 20
2583.500482
 40
6.042648
 50
173.695367
 51
186.304633
  0
LINE
  8
CSLAYER3
  6
CONTINUOUS
 62
     3
 10
3528.343965
 20
2597.500482
 11
3528.343965
 21
2569.500482
  0
ARC
  8
CSLAYER3
  6
CONTINUOUS
 62
     3
 10
3526.755801
 20
2513.635751
 40
83.879767
 50
88.915107
 51
107.445903
  0
ARC
  8
CSLAYER3
  6
CONTINUOUS
 62
     3
 10
3508.389417
 20
2571.120096
 40
23.535094
 50
106.746134
 51
129.570055
  0
ARC
  8
CSLAYER3
  6
CONTINUOUS
 62
     3
 10
3501.022593
 20
2582.652058
 40
10.091606
 50
139.080530
 51
171.383098
  0
ARC
  8
CSLAYER3
  6
CONTINUOUS
 62
     3
 10
3506.823549
 20
1782.631825
 40
815.152781
 50
86.184889
 51
88.487189
  0
LINE
  8
CSLAYER3
  6
CONTINUOUS
 62
     3
 10
3603.625076
 20
2591.539261
 11
3616.124474
 21
2589.664849
  0
LINE
  8
CSLAYER3
  6
CONTINUOUS
 62
     3
 10
3653.872537
 20
2583.500482
 11
3616.124474
 21
2589.664849
  0
LINE
  8
CSLAYER3
  6
CONTINUOUS
 62
     3
 10
3561.061416
 20
2595.978190
 11
3603.625076
 21
2591.539261
  0
ARC
  8
CSLAYER3
  6
CONTINUOUS
 62
     3
 10
3497.051000
 20
2583.500482
 40
6.042648
 50
173.695367
 51
186.304633
  0
ARC
  8
CSLAYER3
  6
CONTINUOUS
 62
     3
 10
3526.755801
 20
2653.365212
 40
83.879767
 50
252.554097
 51
271.084893
  0
ARC
  8
CSLAYER3
  6
CONTINUOUS
 62
     3
 10
3508.389417
 20
2595.880867
 40
23.535094
 50
230.429945
 51
253.253866
  0
ARC
  8
CSLAYER3
  6
CONTINUOUS
 62
     3
 10
3501.022593
 20
2584.348905
 40
10.091606
 50
188.616902
 51
220.919470
  0
ARC
  8
CSLAYER3
  6
CONTINUOUS
 62
     3
 10
3506.823549
 20
3384.369138
 40
815.152781
 50
271.512811
 51
273.815111
  0
LINE
  8
CSLAYER3
  6
CONTINUOUS
 62
     3
 10
3603.625076
 20
2575.461702
 11
3616.124474
 21
2577.336114
  0
LINE
  8
CSLAYER3
  6
CONTINUOUS
 62
     3
 10
3653.872537
 20
2583.500482
 11
3616.124474
 21
2577.336114
  0
LINE
  8
CSLAYER3
  6
CONTINUOUS
 62
     3
 10
3561.061416
 20
2571.022773
 11
3603.625076
 21
2575.461702
  0
ARC
  8
CSLAYER3
  6
CONTINUOUS
 62
     3
 10
3506.823549
 20
1782.631825
 40
818.152781
 50
86.180964
 51
88.487967
  0
ARC
  8
CSLAYER3
  6
CONTINUOUS
 62
     3
 10
3653.872537
 20
2583.500482
 40
3.000000
 50
-80.725302
 51
80.725302
  0
LINE
  8
CSLAYER3
  6
CONTINUOUS
 62
     3
 10
3488.070143
 20
2584.555795
 11
3488.070143
 21
2582.445168
  0
ENDBLK
  8
0
  0
BLOCK
  8
CSLAYER1
  2
BLKF0003
 70
   64
 10
0.0
 20
0.0
 30
0.0
  0
LINE
  8
CSLAYER3
  6
CONTINUOUS
 62
     4
 10
3657.186832
 20
3096.786196
 11
3750.938104
 21
3094.782622
  0
LINE
  8
CSLAYER3
  6
CONTINUOUS
 62
     3
 10
3751.241458
 20
3094.776139
 11
3727.552012
 21
2751.647069
  0
LINE
  8
CSLAYER3
  6
CONTINUOUS
 62
     3
 10
3657.186832
 20
2746.357624
 11
3657.186832
 21
3093.786196
  0
LINE
  8
CSLAYER3
  6
CONTINUOUS
 62
     4
 10
3657.186832
 20
2746.357624
 11
3727.552012
 21
2751.647069
  0
ENDBLK
  8
0
  0
BLOCK
  8
CSLAYER1
  2
BLKF0004
 70
   64
 10
0.0
 20
0.0
 30
0.0
  0
LINE
  8
CSLAYER3
  6
CONTINUOUS
 62
     4
 10
3657.186832
 20
3155.929053
 11
3750.938104
 21
3157.932627
  0
LINE
  8
CSLAYER3
  6
CONTINUOUS
 62
     3
 10
3751.241458
 20
3157.939110
 11
3727.552012
 21
3501.068180
  0
LINE
  8
CSLAYER3
  6
CONTINUOUS
 62
     3
 10
3657.186832
 20
3506.357624
 11
3657.186832
 21
3158.929053
  0
LINE
  8
CSLAYER3
  6
CONTINUOUS
 62
     4
 10
3657.186832
 20
3506.357624
 11
3727.552012
 21
3501.068180
  0
ENDBLK
  8
0
  0
BLOCK
  8
CSLAYER1
  2
BLKF0005
 70
   64
 10
0.0
 20
0.0
 30
0.0
  0
LINE
  8
CSLAYER3
  6
CONTINUOUS
 62
     3
 10
3366.510489
 20
2442.092736
 11
3366.510489
 21
2724.378450
  0
LINE
  8
CSLAYER3
  6
CONTINUOUS
 62
     3
 10
3374.443393
 20
2637.521307
 11
3355.602747
 21
2637.521307
  0
LINE
  8
CSLAYER3
  6
CONTINUOUS
 62
     3
 10
3366.510489
 20
2724.378450
 11
3355.602747
 21
2637.521307
  0
LINE
  8
CSLAYER3
  6
CONTINUOUS
 62
     3
 10
3374.443393
 20
2528.949879
 11
3355.602747
 21
2528.949879
  0
LINE
  8
CSLAYER3
  6
CONTINUOUS
 62
     3
 10
3355.602747
 20
2637.521307
 11
3374.443393
 21
2528.949879
  0
LINE
  8
CSLAYER3
  6
CONTINUOUS
 62
     3
 10
3374.443393
 20
2528.949879
 11
3366.510489
 21
2442.092736
  0
LINE
  8
CSLAYER3
  6
CONTINUOUS
 62
     3
 10
3366.510489
 20
2442.092736
 11
3355.602747
 21
2528.949879
  0
LINE
  8
CSLAYER3
  6
CONTINUOUS
 62
     3
 10
3355.602747
 20
2528.949879
 11
3374.443393
 21
2637.521307
  0
LINE
  8
CSLAYER3
  6
CONTINUOUS
 62
     3
 10
3374.443393
 20
2637.521307
 11
3366.510489
 21
2724.378450
  0
ENDBLK
  8
0
  0
BLOCK
  8
CSLAYER1
  2
BLKF0006
 70
   64
 10
0.0
 20
0.0
 30
0.0
  0
LINE
  8
CSLAYER3
  6
CONTINUOUS
 62
     8
 10
3389.860863
 20
2597.350482
 11
3402.468112
 21
2597.350482
  0
LINE
  8
CSLAYER3
  6
CONTINUOUS
 62
     8
 10
3384.081546
 20
2588.000482
 11
3384.081546
 21
2579.000482
  0
LINE
  8
CSLAYER3
  6
CONTINUOUS
 62
     8
 10
3410.081546
 20
2594.817601
 11
3410.081546
 21
2572.183363
  0
LINE
  8
CSLAYER3
  6
CONTINUOUS
 62
     8
 10
3389.860863
 20
2569.650482
 11
3402.468112
 21
2569.650482
  0
LINE
  8
CSLAYER3
  6
CONTINUOUS
 62
     8
 10
3372.081546
 20
2585.085482
 11
3384.081546
 21
2585.085482
  0
LINE
  8
CSLAYER3
  6
CONTINUOUS
 62
     8
 10
3372.081546
 20
2581.915482
 11
3384.081546
 21
2581.915482
  0
LINE
  8
CSLAYER3
  6
CONTINUOUS
 62
     8
 10
3372.081546
 20
2585.085482
 11
3372.081546
 21
2581.915482
  0
LINE
  8
CSLAYER3
  6
CONTINUOUS
 62
     8
 10
3402.468112
 20
2597.350482
 11
3402.468112
 21
2569.650482
  0
LINE
  8
CSLAYER3
  6
CONTINUOUS
 62
     8
 10
3402.468112
 20
2597.350482
 11
3402.468112
 21
2569.650482
  0
LINE
  8
CSLAYER3
  6
CONTINUOUS
 62
     8
 10
3402.468112
 20
2597.350482
 11
3402.468112
 21
2569.650482
  0
LINE
  8
CSLAYER3
  6
CONTINUOUS
 62
     8
 10
3402.186843
 20
2597.350482
 11
3402.186843
 21
2569.650482
  0
LINE
  8
CSLAYER3
  6
CONTINUOUS
 62
     8
 10
3389.860863
 20
2597.350482
 11
3389.860863
 21
2569.650482
  0
LINE
  8
CSLAYER3
  6
CONTINUOUS
 62
     8
 10
3389.860863
 20
2597.350482
 11
3386.081546
 21
2592.606450
  0
LINE
  8
CSLAYER3
  6
CONTINUOUS
 62
     8
 10
3386.081546
 20
2592.606450
 11
3386.081546
 21
2574.394513
  0
LINE
  8
CSLAYER3
  6
CONTINUOUS
 62
     8
 10
3386.081546
 20
2583.500482
 11
3384.081546
 21
2583.500482
  0
LINE
  8
CSLAYER3
  6
CONTINUOUS
 62
     8
 10
3386.081546
 20
2588.000482
 11
3384.081546
 21
2588.000482
  0
LINE
  8
CSLAYER3
  6
CONTINUOUS
 62
     8
 10
3389.860863
 20
2569.650482
 11
3389.860863
 21
2597.350482
  0
LINE
  8
CSLAYER3
  6
CONTINUOUS
 62
     8
 10
3389.860863
 20
2569.650482
 11
3386.081546
 21
2574.394513
  0
LINE
  8
CSLAYER3
  6
CONTINUOUS
 62
     8
 10
3386.081546
 20
2579.000482
 11
3384.081546
 21
2579.000482
  0
LINE
  8
CSLAYER3
  6
CONTINUOUS
 62
     8
 10
3402.468112
 20
2597.350482
 11
3410.081546
 21
2594.817601
  0
LINE
  8
CSLAYER3
  6
CONTINUOUS
 62
     8
 10
3402.468112
 20
2569.650482
 11
3410.081546
 21
2572.183363
  0
ENDBLK
  8
0
  0
BLOCK
  8
CSLAYER1
  2
BLKF0007
 70
   64
 10
0.0
 20
0.0
 30
0.0
  0
LINE
  8
CSLAYER3
  6
CONTINUOUS
 62
     3
 10
3021.510836
 20
3636.799880
 11
3021.510836
 21
2244.214962
  0
LINE
  8
CSLAYER3
  6
CONTINUOUS
 62
     3
 10
3121.510836
 20
3636.799880
 11
3121.510836
 21
2244.214962
  0
LINE
  8
CSLAYER3
  6
CONTINUOUS
 62
     3
 10
3221.510836
 20
3636.799880
 11
3221.510836
 21
2244.214962
  0
LINE
  8
CSLAYER3
  6
CONTINUOUS
 62
     3
 10
3321.510836
 20
3636.799880
 11
3321.510836
 21
2244.214962
  0
LINE
  8
CSLAYER3
  6
CONTINUOUS
 62
     3
 10
3421.510836
 20
3636.799880
 11
3421.510836
 21
2244.214962
  0
LINE
  8
CSLAYER3
  6
CONTINUOUS
 62
     3
 10
3521.510836
 20
3636.799880
 11
3521.510836
 21
2244.214962
  0
LINE
  8
CSLAYER3
  6
CONTINUOUS
 62
     3
 10
3621.510836
 20
3636.799880
 11
3621.510836
 21
2244.214962
  0
LINE
  8
CSLAYER3
  6
CONTINUOUS
 62
     3
 10
3721.510836
 20
3636.799880
 11
3721.510836
 21
2244.214962
  0
LINE
  8
CSLAYER3
  6
CONTINUOUS
 62
     3
 10
3821.510836
 20
3636.799880
 11
3821.510836
 21
2244.214962
  0
LINE
  8
CSLAYER3
  6
CONTINUOUS
 62
     3
 10
3921.510836
 20
3636.799880
 11
3921.510836
 21
2244.214962
  0
LINE
  8
CSLAYER3
  6
CONTINUOUS
 62
     3
 10
4021.510836
 20
3636.799880
 11
4021.510836
 21
2244.214962
  0
LINE
  8
CSLAYER3
  6
CONTINUOUS
 62
     3
 10
4121.510836
 20
3636.799880
 11
4121.510836
 21
2244.214962
  0
LINE
  8
CSLAYER3
  6
CONTINUOUS
 62
     3
 10
4221.510836
 20
3636.799880
 11
4221.510836
 21
2244.214962
  0
LINE
  8
CSLAYER3
  6
CONTINUOUS
 62
     3
 10
4321.510836
 20
3636.799880
 11
4321.510836
 21
2244.214962
  0
LINE
  8
CSLAYER3
  6
CONTINUOUS
 62
     3
 10
4421.510836
 20
3636.799880
 11
4421.510836
 21
2244.214962
  0
LINE
  8
CSLAYER3
  6
CONTINUOUS
 62
     3
 10
4521.510836
 20
3636.799880
 11
4521.510836
 21
2244.214962
  0
LINE
  8
CSLAYER3
  6
CONTINUOUS
 62
     3
 10
3021.510836
 20
2236.799880
 11
4521.510836
 21
2236.799880
  0
LINE
  8
CSLAYER3
  6
CONTINUOUS
 62
     3
 10
3021.510836
 20
2336.799880
 11
4521.510836
 21
2336.799880
  0
LINE
  8
CSLAYER3
  6
CONTINUOUS
 62
     3
 10
3021.510836
 20
2436.799880
 11
4521.510836
 21
2436.799880
  0
LINE
  8
CSLAYER3
  6
CONTINUOUS
 62
     3
 10
3021.510836
 20
2536.799880
 11
4521.510836
 21
2536.799880
  0
LINE
  8
CSLAYER3
  6
CONTINUOUS
 62
     3
 10
3021.510836
 20
2636.799880
 11
4521.510836
 21
2636.799880
  0
LINE
  8
CSLAYER3
  6
CONTINUOUS
 62
     3
 10
3021.510836
 20
2736.799880
 11
4521.510836
 21
2736.799880
  0
LINE
  8
CSLAYER3
  6
CONTINUOUS
 62
     3
 10
3021.510836
 20
2836.799880
 11
4521.510836
 21
2836.799880
  0
LINE
  8
CSLAYER3
  6
CONTINUOUS
 62
     3
 10
3021.510836
 20
2936.799880
 11
4521.510836
 21
2936.799880
  0
LINE
  8
CSLAYER3
  6
CONTINUOUS
 62
     3
 10
3021.510836
 20
3036.799880
 11
4521.510836
 21
3036.799880
  0
LINE
  8
CSLAYER3
  6
CONTINUOUS
 62
     3
 10
3021.510836
 20
3136.799880
 11
4521.510836
 21
3136.799880
  0
LINE
  8
CSLAYER3
  6
CONTINUOUS
 62
     3
 10
3021.510836
 20
3236.799880
 11
4521.510836
 21
3236.799880
  0
LINE
  8
CSLAYER3
  6
CONTINUOUS
 62
     3
 10
3021.510836
 20
3336.799880
 11
4521.510836
 21
3336.799880
  0
LINE
  8
CSLAYER3
  6
CONTINUOUS
 62
     3
 10
3021.510836
 20
3436.799880
 11
4521.510836
 21
3436.799880
  0
LINE
  8
CSLAYER3
  6
CONTINUOUS
 62
     3
 10
3021.510836
 20
3536.799880
 11
4521.510836
 21
3536.799880
  0
LINE
  8
CSLAYER3
  6
CONTINUOUS
 62
     3
 10
3021.510836
 20
3636.799880
 11
4521.510836
 21
3636.799880
  0
ENDBLK
  8
0
  0
ENDSEC
  0
SECTION
  2
ENTITIES
  0
INSERT
  8
CSLAYER1
  2
BLKF0000
 10
0.0
 20
0.0
 30
0.0
  0
LINE
  8
CSLAYER3
  6
CONTINUOUS
 62
     3
 10
4100.426334
 20
3299.105122
 11
4100.426334
 21
3168.819408
  0
LINE
  8
CSLAYER3
  6
CONTINUOUS
 62
     3
 10
4158.401052
 20
3126.357624
 11
3382.141350
 21
3126.357624
  0
LINE
  8
CSLAYER3
  6
CONTINUOUS
 62
     3
 10
3985.133969
 20
3282.649095
 11
4100.426334
 21
3299.105122
  0
LINE
  8
CSLAYER3
  6
CONTINUOUS
 62
     3
 10
4053.724514
 20
3138.004572
 11
4100.426334
 21
3168.819408
  0
LINE
  8
CSLAYER3
  6
CONTINUOUS
 62
     3
 10
4100.426334
 20
3081.830270
 11
4100.426334
 21
2951.544556
  0
LINE
  8
CSLAYER3
  6
CONTINUOUS
 62
     3
 10
3382.141350
 20
3148.071910
 11
3382.141350
 21
3104.643339
  0
LINE
  8
CSLAYER3
  6
CONTINUOUS
 62
     3
 10
3964.024905
 20
2583.500482
 11
4100.426334
 21
2583.500482
  0
LINE
  8
CSLAYER3
  6
CONTINUOUS
 62
     3
 10
4094.310619
 20
2583.500482
 11
4033.732552
 21
2589.870656
  0
ARC
  8
CSLAYER3
  6
CONTINUOUS
 62
     3
 10
4006.862157
 20
2310.997381
 40
280.164812
 50
84.496346
 51
96.029948
  0
ARC
  8
CSLAYER3
  6
CONTINUOUS
 62
     3
 10
3981.547744
 20
2559.239338
 40
30.650417
 50
97.718270
 51
123.147387
  0
ARC
  8
CSLAYER3
  6
CONTINUOUS
 62
     3
 10
3981.547744
 20
2607.761625
 40
30.650417
 50
236.852613
 51
262.281730
  0
ARC
  8
CSLAYER3
  6
CONTINUOUS
 62
     3
 10
4006.862157
 20
2856.003582
 40
280.164812
 50
263.970052
 51
275.503654
  0
LINE
  8
CSLAYER3
  6
CONTINUOUS
 62
     3
 10
4094.310619
 20
2583.500482
 11
4033.732552
 21
2577.130307
  0
ARC
  8
CSLAYER3
  6
CONTINUOUS
 62
     3
 10
3965.693014
 20
2583.500482
 40
1.668110
 50
122.845947
 51
237.154053
  0
LINE
  8
CSLAYER3
  6
CONTINUOUS
 62
     3
 10
4150.881917
 20
2692.233296
 11
4050.882048
 21
2692.071910
  0
LINE
  8
CSLAYER3
  6
CONTINUOUS
 62
     3
 10
3487.815403
 20
3153.500482
 11
3770.072057
 21
3153.500482
  0
LINE
  8
CSLAYER3
  6
CONTINUOUS
 62
     3
 10
3487.815403
 20
3099.214767
 11
3770.072057
 21
3099.214767
  0
LINE
  8
CSLAYER3
  6
CONTINUOUS
 62
     3
 10
3487.815403
 20
3153.500482
 11
3382.141350
 21
3148.071910
  0
LINE
  8
CSLAYER3
  6
CONTINUOUS
 62
     3
 10
3382.141350
 20
3104.643339
 11
3487.815403
 21
3099.214767
  0
LINE
  8
CSLAYER3
  6
CONTINUOUS
 62
     3
 10
4158.401052
 20
3129.614767
 11
3908.868832
 21
3129.614767
  0
LINE
  8
CSLAYER3
  6
CONTINUOUS
 62
     3
 10
4158.401052
 20
3123.100482
 11
3908.868832
 21
3123.100482
  0
LINE
  8
CSLAYER3
  6
CONTINUOUS
 62
     3
 10
3371.169379
 20
2985.214767
 11
3371.169379
 21
3267.500482
  0
LINE
  8
CSLAYER3
  6
CONTINUOUS
 62
     3
 10
3379.102282
 20
3180.643339
 11
3360.261637
 21
3180.643339
  0
LINE
  8
CSLAYER3
  6
CONTINUOUS
 62
     3
 10
3371.169379
 20
3267.500482
 11
3360.261637
 21
3180.643339
  0
LINE
  8
CSLAYER3
  6
CONTINUOUS
 62
     3
 10
3379.102282
 20
3072.071910
 11
3360.261637
 21
3072.071910
  0
LINE
  8
CSLAYER3
  6
CONTINUOUS
 62
     3
 10
3360.261637
 20
3180.643339
 11
3379.102282
 21
3072.071910
  0
LINE
  8
CSLAYER3
  6
CONTINUOUS
 62
     3
 10
3379.102282
 20
3072.071910
 11
3371.169379
 21
2985.214767
  0
LINE
  8
CSLAYER3
  6
CONTINUOUS
 62
     3
 10
3371.169379
 20
2985.214767
 11
3360.261637
 21
3072.071910
  0
LINE
  8
CSLAYER3
  6
CONTINUOUS
 62
     3
 10
3360.261637
 20
3072.071910
 11
3379.102282
 21
3180.643339
  0
LINE
  8
CSLAYER3
  6
CONTINUOUS
 62
     3
 10
3379.102282
 20
3180.643339
 11
3371.169379
 21
3267.500482
  0
LINE
  8
CSLAYER3
  6
CONTINUOUS
 62
     3
 10
4044.097890
 20
2523.365479
 11
4061.147468
 21
2509.615820
  0
LINE
  8
CSLAYER3
  6
CONTINUOUS
 62
     3
 10
3430.998493
 20
3107.900482
 11
3430.998493
 21
3144.814767
  0
LINE
  8
CSLAYER3
  6
CONTINUOUS
 62
     3
 10
3430.998493
 20
3107.900482
 11
3437.111639
 21
3107.900482
  0
LINE
  8
CSLAYER3
  6
CONTINUOUS
 62
     3
 10
3430.998493
 20
3144.814767
 11
3437.111639
 21
3144.814767
  0
LINE
  8
CSLAYER3
  6
CONTINUOUS
 62
     3
 10
3487.815403
 20
2777.843339
 11
3657.186832
 21
2777.843339
  0
LINE
  8
CSLAYER3
  6
CONTINUOUS
 62
     3
 10
3487.815403
 20
3018.871910
 11
3657.186832
 21
3018.871910
  0
LINE
  8
CSLAYER3
  6
CONTINUOUS
 62
     3
 10
3487.815403
 20
2938.529053
 11
3657.186832
 21
2938.529053
  0
LINE
  8
CSLAYER3
  6
CONTINUOUS
 62
     3
 10
3487.815403
 20
2858.186196
 11
3657.186832
 21
2858.186196
  0
LINE
  8
CSLAYER3
  6
CONTINUOUS
 62
     3
 10
3526.901118
 20
2746.357624
 11
3526.901118
 21
3506.357624
  0
LINE
  8
CSLAYER3
  6
CONTINUOUS
 62
     3
 10
3529.615403
 20
2746.357624
 11
3529.615403
 21
3506.357624
  0
LINE
  8
CSLAYER3
  6
CONTINUOUS
 62
     3
 10
3985.778705
 20
2969.805228
 11
4100.426334
 21
2951.544556
  0
LINE
  8
CSLAYER3
  6
CONTINUOUS
 62
     3
 10
4053.576188
 20
3114.696223
 11
4100.426334
 21
3081.830270
  0
LINE
  8
CSLAYER3
  6
CONTINUOUS
 62
     3
 10
3770.072057
 20
3153.500482
 11
3898.588345
 21
3149.849678
  0
LINE
  8
CSLAYER3
  6
CONTINUOUS
 62
     3
 10
3898.588345
 20
3149.849678
 11
4038.032297
 21
3136.261172
  0
LINE
  8
CSLAYER3
  6
CONTINUOUS
 62
     3
 10
4038.032297
 20
3136.261172
 11
4050.882048
 21
3131.786196
  0
LINE
  8
CSLAYER3
  6
CONTINUOUS
 62
     3
 10
4038.032297
 20
3116.454077
 11
4051.556463
 21
3121.163921
  0
LINE
  8
CSLAYER3
  6
CONTINUOUS
 62
     3
 10
3898.588345
 20
3102.865571
 11
4038.032297
 21
3116.454077
  0
LINE
  8
CSLAYER3
  6
CONTINUOUS
 62
     3
 10
3770.072057
 20
3099.214767
 11
3898.588345
 21
3102.865571
  0
LINE
  8
CSLAYER3
  6
CONTINUOUS
 62
     7
 10
3657.186832
 20
3150.243339
 11
3657.186832
 21
3102.471910
  0
LINE
  8
CSLAYER3
  6
CONTINUOUS
 62
     3
 10
4179.057903
 20
2528.753720
 11
3432.080021
 21
2407.512644
  0
LINE
  8
CSLAYER3
  6
CONTINUOUS
 62
     3
 10
4050.882048
 20
2522.071910
 11
4167.852041
 21
2529.437074
  0
LINE
  8
CSLAYER3
  6
CONTINUOUS
 62
     3
 10
4167.852041
 20
2529.437074
 11
4150.881917
 21
2692.233296
  0
LINE
  8
CSLAYER3
  6
CONTINUOUS
 62
     3
 10
4015.256952
 20
3213.214767
 11
4015.256952
 21
3039.500482
  0
LINE
  8
CSLAYER3
  6
CONTINUOUS
 62
     3
 10
4010.914095
 20
3213.214767
 11
4010.914095
 21
3039.500482
  0
LINE
  8
CSLAYER3
  6
CONTINUOUS
 62
     3
 10
4015.256952
 20
3213.214767
 11
4010.914095
 21
3213.214767
  0
LINE
  8
CSLAYER3
  6
CONTINUOUS
 62
     3
 10
4015.256952
 20
3039.500482
 11
4010.914095
 21
3039.500482
  0
LINE
  8
CSLAYER3
  6
CONTINUOUS
 62
     3
 10
3382.079560
 20
2583.500482
 11
3494.632710
 21
2583.500482
  0
LINE
  8
CSLAYER3
  6
CONTINUOUS
 62
     3
 10
4158.401052
 20
3129.614767
 11
4158.401052
 21
3123.100482
  0
LINE
  8
CSLAYER3
  6
CONTINUOUS
 62
     3
 10
3969.480962
 20
3146.213920
 11
4053.724514
 21
3138.004572
  0
LINE
  8
CSLAYER3
  6
CONTINUOUS
 62
     3
 10
3969.480962
 20
3106.501329
 11
4053.724514
 21
3114.710677
  0
LINE
  8
CSLAYER3
  6
CONTINUOUS
 62
     3
 10
4015.847928
 20
3212.391313
 11
4015.847928
 21
3146.358268
  0
LINE
  8
CSLAYER3
  6
CONTINUOUS
 62
     3
 10
4011.505071
 20
3212.391313
 11
4011.505071
 21
3146.781470
  0
LINE
  8
CSLAYER3
  6
CONTINUOUS
 62
     3
 10
4026.705071
 20
3223.248456
 11
4026.705071
 21
3145.300263
  0
LINE
  8
CSLAYER3
  6
CONTINUOUS
 62
     3
 10
4000.647928
 20
3223.248456
 11
4000.647928
 21
3147.839474
  0
LINE
  8
CSLAYER3
  6
CONTINUOUS
 62
     3
 10
4026.705071
 20
3223.248456
 11
4000.647928
 21
3223.248456
  0
LINE
  8
CSLAYER3
  6
CONTINUOUS
 62
     3
 10
4015.847928
 20
3212.391313
 11
4011.505071
 21
3212.391313
  0
LINE
  8
CSLAYER3
  6
CONTINUOUS
 62
     3
 10
4015.847928
 20
3146.358268
 11
4026.705071
 21
3145.300263
  0
LINE
  8
CSLAYER3
  6
CONTINUOUS
 62
     3
 10
4000.647928
 20
3147.839474
 11
4011.505071
 21
3146.781470
  0
LINE
  8
CSLAYER3
  6
CONTINUOUS
 62
     3
 10
4015.847928
 20
3040.323936
 11
4015.847928
 21
3106.356981
  0
LINE
  8
CSLAYER3
  6
CONTINUOUS
 62
     3
 10
4011.505071
 20
3040.323936
 11
4011.505071
 21
3105.933779
  0
LINE
  8
CSLAYER3
  6
CONTINUOUS
 62
     3
 10
4026.705071
 20
3029.466793
 11
4026.705071
 21
3107.414986
  0
LINE
  8
CSLAYER3
  6
CONTINUOUS
 62
     3
 10
4000.647928
 20
3029.466793
 11
4000.647928
 21
3104.875774
  0
LINE
  8
CSLAYER3
  6
CONTINUOUS
 62
     3
 10
4026.705071
 20
3029.466793
 11
4000.647928
 21
3029.466793
  0
LINE
  8
CSLAYER3
  6
CONTINUOUS
 62
     3
 10
4015.847928
 20
3040.323936
 11
4011.505071
 21
3040.323936
  0
LINE
  8
CSLAYER3
  6
CONTINUOUS
 62
     3
 10
4015.847928
 20
3106.356981
 11
4026.705071
 21
3107.414986
  0
LINE
  8
CSLAYER3
  6
CONTINUOUS
 62
     3
 10
4000.647928
 20
3104.875774
 11
4011.505071
 21
3105.933779
  0
TEXT
  8
CSLAYER3
 62
     3
 10
4263.469006
 20
2040.588739
 40
48.928967
 41
0.642211
  1
18.5dm
 50
0.000000
 51
0.000000
  7
FX_FONT
 72
     5
 11
4441.530994
 21
2040.588739
  0
CIRCLE
  8
CSLAYER3
  6
CONTINUOUS
 62
     3
 10
4013.085523
 20
2583.500482
 40
2.000000
  0
LINE
  8
CSLAYER3
  6
CONTINUOUS
 62
     3
 10
3427.706033
 20
3147.010502
 11
3427.706033
 21
3105.704747
  0
TEXT
  8
CSLAYER3
 62
     3
 10
3598.840702
 20
2104.497562
 40
74.100090
 41
0.903126
  1
Akabara12
 50
0.000000
 51
0.000000
  7
FX_FONT
 72
     5
 11
4178.829220
 21
2104.497562
  0
ARC
  8
CSLAYER3
  6
CONTINUOUS
 62
     3
 10
4013.085523
 20
2595.500482
 40
3.500000
 50
0.000000
 51
180.000000
  0
LINE
  8
CSLAYER3
  6
CONTINUOUS
 62
     3
 10
4016.585523
 20
2595.500482
 11
4016.585523
 21
2583.500482
  0
LINE
  8
CSLAYER3
  6
CONTINUOUS
 62
     3
 10
4009.585523
 20
2595.500482
 11
4009.585523
 21
2583.500482
  0
ARC
  8
CSLAYER3
  6
CONTINUOUS
 62
     3
 10
4013.085523
 20
2583.500482
 40
3.500000
 50
180.000000
 51
360.000000
  0
LINE
  8
CSLAYER3
  6
CONTINUOUS
 62
     3
 10
4051.801470
 20
2560.969217
 11
4061.620213
 21
2560.969217
  0
LINE
  8
CSLAYER3
  6
CONTINUOUS
 62
     3
 10
4061.620213
 20
2560.969217
 11
4061.620213
 21
2545.213560
  0
LINE
  8
CSLAYER3
  6
CONTINUOUS
 62
     3
 10
4061.620213
 20
2545.213560
 11
4051.801470
 21
2545.213560
  0
LINE
  8
CSLAYER3
  6
CONTINUOUS
 62
     3
 10
4051.801470
 20
2545.213560
 11
4051.801470
 21
2560.969217
  0
LINE
  8
CSLAYER3
  6
CONTINUOUS
 62
     3
 10
4050.882048
 20
3131.786196
 11
4050.882048
 21
3119.357624
  0
CIRCLE
  8
CSLAYER3
  6
CONTINUOUS
 62
     3
 10
4050.882048
 20
3115.357624
 40
1.000000
  0
ARC
  8
CSLAYER3
  6
CONTINUOUS
 62
     3
 10
4050.882048
 20
3115.357624
 40
4.000000
 50
90.000000
 51
320.352925
  0
LINE
  8
CSLAYER3
  6
CONTINUOUS
 62
     3
 10
4062.533584
 20
3123.149341
 11
4053.962005
 21
3112.805397
  0
LINE
  8
CSLAYER3
  6
CONTINUOUS
 62
     3
 10
3574.265403
 20
3150.243339
 11
3574.265403
 21
3102.471910
  0
CIRCLE
  8
CSLAYER3
  6
CONTINUOUS
 62
     3
 10
3574.265403
 20
3126.357624
 40
10.000000
  0
INSERT
  8
CSLAYER1
  2
BLKF0001
 10
0.0
 20
0.0
 30
0.0
  0
INSERT
  8
CSLAYER1
  2
BLKF0002
 10
0.0
 20
0.0
 30
0.0
  0
LINE
  8
CSLAYER3
  6
CONTINUOUS
 62
     4
 10
3969.454905
 20
3145.996125
 11
3985.815472
 21
3282.746368
  0
LINE
  8
CSLAYER3
  6
CONTINUOUS
 62
     4
 10
3969.454905
 20
3106.719123
 11
3985.834256
 21
2969.811874
  0
INSERT
  8
CSLAYER1
  2
BLKF0003
 10
0.0
 20
0.0
 30
0.0
  0
INSERT
  8
CSLAYER1
  2
BLKF0004
 10
0.0
 20
0.0
 30
0.0
  0
TEXT
  8
CSLAYER3
 62
     3
 10
3709.431782
 20
2016.579338
 40
74.201187
 41
0.534483
  1
2004/04/12
 50
0.000000
 51
0.000000
  7
FX_FONT
 72
     5
 11
4092.804546
 21
2016.579338
  0
INSERT
  8
CSLAYER1
  2
BLKF0005
 10
0.0
 20
0.0
 30
0.0
  0
INSERT
  8
CSLAYER1
  2
BLKF0006
 10
0.0
 20
0.0
 30
0.0
  0
LINE
  8
CSLAYER3
  6
CONTINUOUS
 62
     3
 10
3488.066695
 20
2558.580667
 11
3491.909160
 21
2436.902602
  0
LINE
  8
CSLAYER3
  6
CONTINUOUS
 62
     3
 10
3488.066695
 20
2558.580667
 11
3465.375379
 21
2498.842567
  0
CIRCLE
  8
CSLAYER3
  6
CONTINUOUS
 62
     3
 10
3491.909160
 20
2436.902602
 40
19.424959
  0
LINE
  8
CSLAYER3
  6
CONTINUOUS
 62
     3
 10
3487.815403
 20
3474.871910
 11
3657.186832
 21
3474.871910
  0
LINE
  8
CSLAYER3
  6
CONTINUOUS
 62
     3
 10
3487.815403
 20
3233.843339
 11
3657.186832
 21
3233.843339
  0
LINE
  8
CSLAYER3
  6
CONTINUOUS
 62
     3
 10
3487.815403
 20
3314.186196
 11
3657.186832
 21
3314.186196
  0
LINE
  8
CSLAYER3
  6
CONTINUOUS
 62
     3
 10
3487.815403
 20
3394.529053
 11
3657.186832
 21
3394.529053
  0
INSERT
  8
CSLAYER1
  2
BLKF0007
 10
0.0
 20
0.0
 30
0.0
  0
ENDSEC
  0
EOF
