  0
SECTION
  2
HEADER
  9
$ACADVER
  1
AC1006
  9
$INSBASE
 10
2282.658454
 20
1740.809242
 30
0.0
  9
$EXTMIN
 10
2282.658454
 20
1740.809242
  9
$EXTMAX
 10
5372.111460
 20
3925.493867
  9
$LIMMIN
 10
2282.658454
 20
1740.809242
  9
$LIMMAX
 10
5372.111460
 20
3925.493867
  9
$VIEWCTR
 10
3827.384957
 20
2833.151554
  9
$VIEWSIZE
 40
2184.684625
  9
$SNAPMODE
 70
     0
  9
$SNAPUNIT
 10
1.0
 20
1.0
  9
$SNAPBASE
 10
0.0
 20
0.0
  9
$SNAPANG
 50
0.0
  9
$SNAPSTYLE
 70
     0
  9
$SNAPISOPAIR
 70
     0
  9
$GRIDMODE
 70
     0
  9
$GRIDUNIT
 10
0.0
 20
0.0
  9
$ORTHOMODE
 70
     0
  9
$REGENMODE
 70
     1
  9
$FILLMODE
 70
     1
  9
$QTEXTMODE
 70
     0
  9
$DRAGMODE
 70
     2
  9
$LTSCALE
 40
15.000000
  9
$OSMODE
 70
     0
  9
$ATTMODE
 70
     1
  9
$TEXTSIZE
 40
0.2
  9
$TRACEWID
 40
0.05
  9
$TEXTSTYLE
  7
STANDARD
  9
$CLAYER
  8
CSLAYER3
  9
$CELTYPE
  6
BYLAYER
  9
$CECOLOR
 62
   256
  9
$DIMSCALE
 40
1.0
  9
$DIMASZ
 40
0.18
  9
$DIMEXO
 40
0.0625
  9
$DIMDLI
 40
0.38
  9
$DIMRND
 40
0.0
  9
$DIMDLE
 40
0.0
  9
$DIMEXE
 40
0.18
  9
$DIMTP
 40
0.0
  9
$DIMTM
 40
0.0
  9
$DIMTXT
 40
0.18
  9
$DIMCEN
 40
0.09
  9
$DIMTSZ
 40
0.0
  9
$DIMTOL
 70
     0
  9
$DIMLIM
 70
     0
  9
$DIMTIH
 70
     1
  9
$DIMTOH
 70
     1
  9
$DIMSE1
 70
     0
  9
$DIMSE2
 70
     0
  9
$DIMTAD
 70
     0
  9
$DIMZIN
 70
     0
  9
$DIMBLK
  1

  9
$LUNITS
 70
     2
  9
$LUPREC
 70
     4
  9
$AXISMODE
 70
     0
  9
$AXISUNIT
 10
0.0
 20
0.0
  9
$SKETCHINC
 40
0.1
  9
$FILLETRAD
 40
0.0
  9
$AUNITS
 70
     0
  9
$AUPREC
 70
     0
  9
$MENU
  1
ACAD
  9
$ELEVATION
 40
0.0
  9
$THICKNESS
 40
0.0
  9
$VIEWDIR
 10
0.0
 20
0.0
 30
1.0
  9
$LIMCHECK
 70
     0
  9
$BLIPMODE
 70
     1
  9
$CHAMFERA
 40
0.0
  9
$CHAMFERB
 40
0.0
  9
$FASTZOOM
 70
     1
  9
$SKPOLY
 70
     0
  9
$TDCREATE
 40
2453187.000000
  9
$TDUPDATE
 40
2453187.000000
  9
$TDINDWG
 40
0.0
  9
$TDUSRTIMER
 40
0.0
  9
$USRTIMER
 70
     1
  9
$ANGBASE
 50
0.0
  9
$ANGDIR
 70
     0
  9
$PDMODE
 70
     0
  9
$PDSIZE
 40
0.0
  9
$PLINEWID
 40
0.0
  9
$COORDS
 70
     0
  9
$USERI1
 70
     0
  9
$USERI2
 70
     0
  9
$USERI3
 70
     0
  9
$USERI4
 70
     0
  9
$USERI5
 70
     0
  9
$USERR1
 40
0.0
  9
$USERR2
 40
0.0
  9
$USERR3
 40
0.0
  9
$USERR4
 40
0.0
  9
$USERR5
 40
0.0
  0
ENDSEC
  0
SECTION
  2
TABLES
  0
TABLE
  2
LTYPE
 70
     9
  0
LTYPE
  2
CONTINUOUS
 70
    64
  3
Solid line
 72
    65
 73
     0
 40
0.0
  0
LTYPE
  2
DASHED
 70
    64
  3
__ __ __ __ __ __ __ __ __ __ __ __ __ __ __
 72
    65
 73
     2
 40
0.75
 49
0.5
 49
-0.25
  0
LTYPE
  2
HIDDEN
 70
    64
  3
_ _ _ _ _ _ _ _ _ _ _ _ _ _ _ _ _ _ _ _ _ _ _
 72
    65
 73
     2
 40
0.375
 49
0.25
 49
-0.125
  0
LTYPE
  2
DOT
 70
    64
  3
...............................................
 72
    65
 73
     2
 40
0.25
 49
0.0
 49
-0.25
  0
LTYPE
  2
DASHDOT
 70
    64
  3
__ . __ . __ . __ . __ . __ . __ . __ . __ . __
 72
    65
 73
     4
 40
1.0
 49
0.5
 49
-0.25
 49
0.0
 49
-0.25
  0
LTYPE
  2
DIVIDE
 70
    64
  3
__ . . __ . . __ . . __ . . __ . . __ . . __
 72
    65
 73
     6
 40
1.25
 49
0.5
 49
-0.25
 49
0.0
 49
-0.25
 49
0.0
 49
-0.25
  0
LTYPE
  2
CENTER
 70
    64
  3
____ _ ____ _ ____ _ ____ _ ____ _ ____ _ ____ 
 72
    65
 73
     4
 40
2.0
 49
1.25
 49
-0.25
 49
0.25
 49
-0.25
  0
LTYPE
  2
PHANTOM
 70
    64
  3
______  __  __  ______  __  __  ______  __  __ 
 72
    65
 73
     6
 40
2.5
 49
1.25
 49
-0.25
 49
0.25
 49
-0.25
 49
0.25
 49
-0.25
  0
LTYPE
  2
BORDER
 70
    64
  3
__ __ . __ __ . __ __ . __ __ . __ __ . __ __ .
 72
    65
 73
     6
 40
1.75
 49
0.5
 49
-0.25
 49
0.5
 49
-0.25
 49
0.0
 49
-0.25
  0
ENDTAB
  0
TABLE
  2
LAYER
 70
    16
  0
LAYER
  2
CSLAYER1
 70
    64
 62
     7
  6
CONTINUOUS
  0
LAYER
  2
CSLAYER2
 70
    64
 62
     7
  6
CONTINUOUS
  0
LAYER
  2
CSLAYER3
 70
    64
 62
     7
  6
CONTINUOUS
  0
LAYER
  2
CSLAYER4
 70
    64
 62
     7
  6
CONTINUOUS
  0
LAYER
  2
CSLAYER5
 70
    64
 62
     7
  6
CONTINUOUS
  0
LAYER
  2
CSLAYER6
 70
    64
 62
     7
  6
CONTINUOUS
  0
LAYER
  2
CSLAYER7
 70
    64
 62
     7
  6
CONTINUOUS
  0
LAYER
  2
CSLAYER8
 70
    64
 62
     7
  6
CONTINUOUS
  0
LAYER
  2
CSLAYER9
 70
    64
 62
     7
  6
CONTINUOUS
  0
LAYER
  2
CSLAYER10
 70
    64
 62
     7
  6
CONTINUOUS
  0
LAYER
  2
CSLAYER11
 70
    64
 62
     7
  6
CONTINUOUS
  0
LAYER
  2
CSLAYER12
 70
    64
 62
     7
  6
CONTINUOUS
  0
LAYER
  2
CSLAYER13
 70
    64
 62
     7
  6
CONTINUOUS
  0
LAYER
  2
CSLAYER14
 70
    64
 62
     7
  6
CONTINUOUS
  0
LAYER
  2
CSLAYER15
 70
    64
 62
     7
  6
CONTINUOUS
  0
LAYER
  2
CSLAYER16
 70
    64
 62
     7
  6
CONTINUOUS
  0
ENDTAB
  0
TABLE
  2
STYLE
 70
     1
  0
STYLE
  2
FX_FONT
 70
     0
 40
1.0
 41
1.0
 50
0.0
 71
     0
 42
1.0
  3
monotxt
  4
bigfont
  0
ENDTAB
  0
TABLE
  2
VIEW
 70
     0
  0
ENDTAB
  0
ENDSEC
  0
SECTION
  2
BLOCKS
  0
BLOCK
  8
CSLAYER1
  2
BLKF0000
 70
   64
 10
0.0
 20
0.0
 30
0.0
  0
LINE
  8
CSLAYER3
  6
CONTINUOUS
 62
     3
 10
3580.762740
 20
3554.989133
 11
3717.562740
 21
3554.989133
  0
LINE
  8
CSLAYER3
  6
CONTINUOUS
 62
     3
 10
3580.762740
 20
2794.989133
 11
3717.562740
 21
2794.989133
  0
LINE
  8
CSLAYER3
  6
CONTINUOUS
 62
     3
 10
3717.562740
 20
3554.989133
 11
3717.562740
 21
2794.989133
  0
LINE
  8
CSLAYER3
  6
CONTINUOUS
 62
     3
 10
3548.191312
 20
3522.417704
 11
3548.191312
 21
2827.560561
  0
ARC
  8
CSLAYER3
  6
CONTINUOUS
 62
     3
 10
3580.762740
 20
2827.560561
 40
32.571429
 50
180.000000
 51
270.000000
  0
ARC
  8
CSLAYER3
  6
CONTINUOUS
 62
     3
 10
3580.762740
 20
3522.417704
 40
32.571429
 50
90.000000
 51
180.000000
  0
ENDBLK
  8
0
  0
BLOCK
  8
CSLAYER1
  2
BLKF0001
 70
   64
 10
0.0
 20
0.0
 30
0.0
  0
LINE
  8
CSLAYER3
  6
CONTINUOUS
 62
     3
 10
3624.650035
 20
3174.571527
 11
3634.641312
 21
3174.571527
  0
LINE
  8
CSLAYER3
  6
CONTINUOUS
 62
     3
 10
3624.643680
 20
3174.771527
 11
3634.641312
 21
3174.771527
  0
LINE
  8
CSLAYER3
  6
CONTINUOUS
 62
     3
 10
3624.641327
 20
3174.971527
 11
3634.641312
 21
3174.971527
  0
LINE
  8
CSLAYER3
  6
CONTINUOUS
 62
     3
 10
3634.641312
 20
3175.171527
 11
3644.639648
 21
3175.171527
  0
LINE
  8
CSLAYER3
  6
CONTINUOUS
 62
     3
 10
3634.641312
 20
3175.371527
 11
3644.633998
 21
3175.371527
  0
LINE
  8
CSLAYER3
  6
CONTINUOUS
 62
     3
 10
3634.641312
 20
3175.571527
 11
3644.624338
 21
3175.571527
  0
LINE
  8
CSLAYER3
  6
CONTINUOUS
 62
     3
 10
3634.641312
 20
3175.771527
 11
3644.610658
 21
3175.771527
  0
LINE
  8
CSLAYER3
  6
CONTINUOUS
 62
     3
 10
3634.641312
 20
3175.971527
 11
3644.592940
 21
3175.971527
  0
LINE
  8
CSLAYER3
  6
CONTINUOUS
 62
     3
 10
3634.641312
 20
3176.171527
 11
3644.571163
 21
3176.171527
  0
LINE
  8
CSLAYER3
  6
CONTINUOUS
 62
     3
 10
3634.641312
 20
3176.371527
 11
3644.545300
 21
3176.371527
  0
LINE
  8
CSLAYER3
  6
CONTINUOUS
 62
     3
 10
3634.641312
 20
3176.571527
 11
3644.515319
 21
3176.571527
  0
LINE
  8
CSLAYER3
  6
CONTINUOUS
 62
     3
 10
3634.641312
 20
3176.771527
 11
3644.481183
 21
3176.771527
  0
LINE
  8
CSLAYER3
  6
CONTINUOUS
 62
     3
 10
3634.641312
 20
3176.971527
 11
3644.442848
 21
3176.971527
  0
LINE
  8
CSLAYER3
  6
CONTINUOUS
 62
     3
 10
3634.641312
 20
3177.171527
 11
3644.400264
 21
3177.171527
  0
LINE
  8
CSLAYER3
  6
CONTINUOUS
 62
     3
 10
3634.641312
 20
3177.371527
 11
3644.353376
 21
3177.371527
  0
LINE
  8
CSLAYER3
  6
CONTINUOUS
 62
     3
 10
3634.641312
 20
3177.571527
 11
3644.302121
 21
3177.571527
  0
LINE
  8
CSLAYER3
  6
CONTINUOUS
 62
     3
 10
3634.641312
 20
3177.771527
 11
3644.246429
 21
3177.771527
  0
LINE
  8
CSLAYER3
  6
CONTINUOUS
 62
     3
 10
3634.641312
 20
3177.971527
 11
3644.186223
 21
3177.971527
  0
LINE
  8
CSLAYER3
  6
CONTINUOUS
 62
     3
 10
3634.641312
 20
3178.171527
 11
3644.121416
 21
3178.171527
  0
LINE
  8
CSLAYER3
  6
CONTINUOUS
 62
     3
 10
3634.641312
 20
3178.371527
 11
3644.051913
 21
3178.371527
  0
LINE
  8
CSLAYER3
  6
CONTINUOUS
 62
     3
 10
3634.641312
 20
3178.571527
 11
3643.977609
 21
3178.571527
  0
LINE
  8
CSLAYER3
  6
CONTINUOUS
 62
     3
 10
3634.641312
 20
3178.771527
 11
3643.898390
 21
3178.771527
  0
LINE
  8
CSLAYER3
  6
CONTINUOUS
 62
     3
 10
3634.641312
 20
3178.971527
 11
3643.814127
 21
3178.971527
  0
LINE
  8
CSLAYER3
  6
CONTINUOUS
 62
     3
 10
3634.641312
 20
3179.171527
 11
3643.724680
 21
3179.171527
  0
LINE
  8
CSLAYER3
  6
CONTINUOUS
 62
     3
 10
3634.641312
 20
3179.371527
 11
3643.629895
 21
3179.371527
  0
LINE
  8
CSLAYER3
  6
CONTINUOUS
 62
     3
 10
3634.641312
 20
3179.571527
 11
3643.529600
 21
3179.571527
  0
LINE
  8
CSLAYER3
  6
CONTINUOUS
 62
     3
 10
3634.641312
 20
3179.771527
 11
3643.423607
 21
3179.771527
  0
LINE
  8
CSLAYER3
  6
CONTINUOUS
 62
     3
 10
3634.641312
 20
3179.971527
 11
3643.311707
 21
3179.971527
  0
LINE
  8
CSLAYER3
  6
CONTINUOUS
 62
     3
 10
3634.641312
 20
3180.171527
 11
3643.193668
 21
3180.171527
  0
LINE
  8
CSLAYER3
  6
CONTINUOUS
 62
     3
 10
3634.641312
 20
3180.371527
 11
3643.069232
 21
3180.371527
  0
LINE
  8
CSLAYER3
  6
CONTINUOUS
 62
     3
 10
3634.641312
 20
3180.571527
 11
3642.938111
 21
3180.571527
  0
LINE
  8
CSLAYER3
  6
CONTINUOUS
 62
     3
 10
3634.641312
 20
3180.771527
 11
3642.799983
 21
3180.771527
  0
LINE
  8
CSLAYER3
  6
CONTINUOUS
 62
     3
 10
3634.641312
 20
3180.971527
 11
3642.654486
 21
3180.971527
  0
LINE
  8
CSLAYER3
  6
CONTINUOUS
 62
     3
 10
3634.641312
 20
3181.171527
 11
3642.501210
 21
3181.171527
  0
LINE
  8
CSLAYER3
  6
CONTINUOUS
 62
     3
 10
3634.641312
 20
3181.371527
 11
3642.339691
 21
3181.371527
  0
LINE
  8
CSLAYER3
  6
CONTINUOUS
 62
     3
 10
3634.641312
 20
3181.571527
 11
3642.169398
 21
3181.571527
  0
LINE
  8
CSLAYER3
  6
CONTINUOUS
 62
     3
 10
3634.641312
 20
3181.771527
 11
3641.989722
 21
3181.771527
  0
LINE
  8
CSLAYER3
  6
CONTINUOUS
 62
     3
 10
3634.641312
 20
3181.971527
 11
3641.799955
 21
3181.971527
  0
LINE
  8
CSLAYER3
  6
CONTINUOUS
 62
     3
 10
3634.641312
 20
3182.171527
 11
3641.599272
 21
3182.171527
  0
LINE
  8
CSLAYER3
  6
CONTINUOUS
 62
     3
 10
3634.641312
 20
3182.371527
 11
3641.386700
 21
3182.371527
  0
LINE
  8
CSLAYER3
  6
CONTINUOUS
 62
     3
 10
3634.641312
 20
3182.571527
 11
3641.161074
 21
3182.571527
  0
LINE
  8
CSLAYER3
  6
CONTINUOUS
 62
     3
 10
3634.641312
 20
3182.771527
 11
3640.920989
 21
3182.771527
  0
LINE
  8
CSLAYER3
  6
CONTINUOUS
 62
     3
 10
3634.641312
 20
3182.971527
 11
3640.664715
 21
3182.971527
  0
LINE
  8
CSLAYER3
  6
CONTINUOUS
 62
     3
 10
3634.641312
 20
3183.171527
 11
3640.390088
 21
3183.171527
  0
LINE
  8
CSLAYER3
  6
CONTINUOUS
 62
     3
 10
3634.641312
 20
3183.371527
 11
3640.094336
 21
3183.371527
  0
LINE
  8
CSLAYER3
  6
CONTINUOUS
 62
     3
 10
3634.641312
 20
3183.571527
 11
3639.773807
 21
3183.571527
  0
LINE
  8
CSLAYER3
  6
CONTINUOUS
 62
     3
 10
3634.641312
 20
3183.771527
 11
3639.423524
 21
3183.771527
  0
LINE
  8
CSLAYER3
  6
CONTINUOUS
 62
     3
 10
3634.641312
 20
3183.971527
 11
3639.036377
 21
3183.971527
  0
LINE
  8
CSLAYER3
  6
CONTINUOUS
 62
     3
 10
3634.641312
 20
3184.171527
 11
3638.601569
 21
3184.171527
  0
LINE
  8
CSLAYER3
  6
CONTINUOUS
 62
     3
 10
3634.641312
 20
3184.371527
 11
3638.101179
 21
3184.371527
  0
LINE
  8
CSLAYER3
  6
CONTINUOUS
 62
     3
 10
3634.641312
 20
3184.571527
 11
3637.500984
 21
3184.571527
  0
LINE
  8
CSLAYER3
  6
CONTINUOUS
 62
     3
 10
3634.641312
 20
3184.771527
 11
3636.716105
 21
3184.771527
  0
LINE
  8
CSLAYER3
  6
CONTINUOUS
 62
     3
 10
3634.641312
 20
3184.971527
 11
3635.234446
 21
3184.971527
  0
LINE
  8
CSLAYER3
  6
CONTINUOUS
 62
     3
 10
3624.660402
 20
3174.371527
 11
3634.641312
 21
3174.371527
  0
LINE
  8
CSLAYER3
  6
CONTINUOUS
 62
     3
 10
3624.674792
 20
3174.171527
 11
3634.641312
 21
3174.171527
  0
LINE
  8
CSLAYER3
  6
CONTINUOUS
 62
     3
 10
3624.693223
 20
3173.971527
 11
3634.641312
 21
3173.971527
  0
LINE
  8
CSLAYER3
  6
CONTINUOUS
 62
     3
 10
3624.715717
 20
3173.771527
 11
3634.641312
 21
3173.771527
  0
LINE
  8
CSLAYER3
  6
CONTINUOUS
 62
     3
 10
3624.742302
 20
3173.571527
 11
3634.641312
 21
3173.571527
  0
LINE
  8
CSLAYER3
  6
CONTINUOUS
 62
     3
 10
3624.773011
 20
3173.371527
 11
3634.641312
 21
3173.371527
  0
LINE
  8
CSLAYER3
  6
CONTINUOUS
 62
     3
 10
3624.807884
 20
3173.171527
 11
3634.641312
 21
3173.171527
  0
LINE
  8
CSLAYER3
  6
CONTINUOUS
 62
     3
 10
3624.846963
 20
3172.971527
 11
3634.641312
 21
3172.971527
  0
LINE
  8
CSLAYER3
  6
CONTINUOUS
 62
     3
 10
3624.890300
 20
3172.771527
 11
3634.641312
 21
3172.771527
  0
LINE
  8
CSLAYER3
  6
CONTINUOUS
 62
     3
 10
3624.937952
 20
3172.571527
 11
3634.641312
 21
3172.571527
  0
LINE
  8
CSLAYER3
  6
CONTINUOUS
 62
     3
 10
3624.989983
 20
3172.371527
 11
3634.641312
 21
3172.371527
  0
LINE
  8
CSLAYER3
  6
CONTINUOUS
 62
     3
 10
3625.046464
 20
3172.171527
 11
3634.641312
 21
3172.171527
  0
LINE
  8
CSLAYER3
  6
CONTINUOUS
 62
     3
 10
3625.107474
 20
3171.971527
 11
3634.641312
 21
3171.971527
  0
LINE
  8
CSLAYER3
  6
CONTINUOUS
 62
     3
 10
3625.173101
 20
3171.771527
 11
3634.641312
 21
3171.771527
  0
LINE
  8
CSLAYER3
  6
CONTINUOUS
 62
     3
 10
3625.243441
 20
3171.571527
 11
3634.641312
 21
3171.571527
  0
LINE
  8
CSLAYER3
  6
CONTINUOUS
 62
     3
 10
3625.318601
 20
3171.371527
 11
3634.641312
 21
3171.371527
  0
LINE
  8
CSLAYER3
  6
CONTINUOUS
 62
     3
 10
3625.398699
 20
3171.171527
 11
3634.641312
 21
3171.171527
  0
LINE
  8
CSLAYER3
  6
CONTINUOUS
 62
     3
 10
3625.483864
 20
3170.971527
 11
3634.641312
 21
3170.971527
  0
LINE
  8
CSLAYER3
  6
CONTINUOUS
 62
     3
 10
3625.574239
 20
3170.771527
 11
3634.641312
 21
3170.771527
  0
LINE
  8
CSLAYER3
  6
CONTINUOUS
 62
     3
 10
3625.669982
 20
3170.571527
 11
3634.641312
 21
3170.571527
  0
LINE
  8
CSLAYER3
  6
CONTINUOUS
 62
     3
 10
3625.771266
 20
3170.371527
 11
3634.641312
 21
3170.371527
  0
LINE
  8
CSLAYER3
  6
CONTINUOUS
 62
     3
 10
3625.878283
 20
3170.171527
 11
3634.641312
 21
3170.171527
  0
LINE
  8
CSLAYER3
  6
CONTINUOUS
 62
     3
 10
3625.991246
 20
3169.971527
 11
3634.641312
 21
3169.971527
  0
LINE
  8
CSLAYER3
  6
CONTINUOUS
 62
     3
 10
3626.110392
 20
3169.771527
 11
3634.641312
 21
3169.771527
  0
LINE
  8
CSLAYER3
  6
CONTINUOUS
 62
     3
 10
3626.235983
 20
3169.571527
 11
3634.641312
 21
3169.571527
  0
LINE
  8
CSLAYER3
  6
CONTINUOUS
 62
     3
 10
3626.368313
 20
3169.371527
 11
3634.641312
 21
3169.371527
  0
LINE
  8
CSLAYER3
  6
CONTINUOUS
 62
     3
 10
3626.507711
 20
3169.171527
 11
3634.641312
 21
3169.171527
  0
LINE
  8
CSLAYER3
  6
CONTINUOUS
 62
     3
 10
3626.654546
 20
3168.971527
 11
3634.641312
 21
3168.971527
  0
LINE
  8
CSLAYER3
  6
CONTINUOUS
 62
     3
 10
3626.809238
 20
3168.771527
 11
3634.641312
 21
3168.771527
  0
LINE
  8
CSLAYER3
  6
CONTINUOUS
 62
     3
 10
3626.972261
 20
3168.571527
 11
3634.641312
 21
3168.571527
  0
LINE
  8
CSLAYER3
  6
CONTINUOUS
 62
     3
 10
3627.144159
 20
3168.371527
 11
3634.641312
 21
3168.371527
  0
LINE
  8
CSLAYER3
  6
CONTINUOUS
 62
     3
 10
3627.325558
 20
3168.171527
 11
3634.641312
 21
3168.171527
  0
LINE
  8
CSLAYER3
  6
CONTINUOUS
 62
     3
 10
3627.517183
 20
3167.971527
 11
3634.641312
 21
3167.971527
  0
LINE
  8
CSLAYER3
  6
CONTINUOUS
 62
     3
 10
3627.719884
 20
3167.771527
 11
3634.641312
 21
3167.771527
  0
LINE
  8
CSLAYER3
  6
CONTINUOUS
 62
     3
 10
3627.934664
 20
3167.571527
 11
3634.641312
 21
3167.571527
  0
LINE
  8
CSLAYER3
  6
CONTINUOUS
 62
     3
 10
3628.162725
 20
3167.371527
 11
3634.641312
 21
3167.371527
  0
LINE
  8
CSLAYER3
  6
CONTINUOUS
 62
     3
 10
3628.405525
 20
3167.171527
 11
3634.641312
 21
3167.171527
  0
LINE
  8
CSLAYER3
  6
CONTINUOUS
 62
     3
 10
3628.664858
 20
3166.971527
 11
3634.641312
 21
3166.971527
  0
LINE
  8
CSLAYER3
  6
CONTINUOUS
 62
     3
 10
3628.942983
 20
3166.771527
 11
3634.641312
 21
3166.771527
  0
LINE
  8
CSLAYER3
  6
CONTINUOUS
 62
     3
 10
3629.242802
 20
3166.571527
 11
3634.641312
 21
3166.571527
  0
LINE
  8
CSLAYER3
  6
CONTINUOUS
 62
     3
 10
3629.568160
 20
3166.371527
 11
3634.641312
 21
3166.371527
  0
LINE
  8
CSLAYER3
  6
CONTINUOUS
 62
     3
 10
3629.924340
 20
3166.171527
 11
3634.641312
 21
3166.171527
  0
LINE
  8
CSLAYER3
  6
CONTINUOUS
 62
     3
 10
3630.318953
 20
3165.971527
 11
3634.641312
 21
3165.971527
  0
LINE
  8
CSLAYER3
  6
CONTINUOUS
 62
     3
 10
3630.763717
 20
3165.771527
 11
3634.641312
 21
3165.771527
  0
LINE
  8
CSLAYER3
  6
CONTINUOUS
 62
     3
 10
3631.278471
 20
3165.571527
 11
3634.641312
 21
3165.571527
  0
LINE
  8
CSLAYER3
  6
CONTINUOUS
 62
     3
 10
3631.902396
 20
3165.371527
 11
3634.641312
 21
3165.371527
  0
LINE
  8
CSLAYER3
  6
CONTINUOUS
 62
     3
 10
3632.740098
 20
3165.171527
 11
3634.641312
 21
3165.171527
  0
ENDBLK
  8
0
  0
BLOCK
  8
CSLAYER1
  2
BLKF0002
 70
   64
 10
0.0
 20
0.0
 30
0.0
  0
LINE
  8
CSLAYER3
  6
CONTINUOUS
 62
     4
 10
3717.562740
 20
3145.417704
 11
3811.314013
 21
3143.414130
  0
LINE
  8
CSLAYER3
  6
CONTINUOUS
 62
     3
 10
3811.617367
 20
3143.407647
 11
3787.927921
 21
2800.278577
  0
LINE
  8
CSLAYER3
  6
CONTINUOUS
 62
     3
 10
3717.562740
 20
2794.989133
 11
3717.562740
 21
3142.417704
  0
LINE
  8
CSLAYER3
  6
CONTINUOUS
 62
     4
 10
3717.562740
 20
2794.989133
 11
3787.927921
 21
2800.278577
  0
ENDBLK
  8
0
  0
BLOCK
  8
CSLAYER1
  2
BLKF0003
 70
   64
 10
0.0
 20
0.0
 30
0.0
  0
LINE
  8
CSLAYER3
  6
CONTINUOUS
 62
     4
 10
3717.562740
 20
3204.560561
 11
3811.314013
 21
3206.564136
  0
LINE
  8
CSLAYER3
  6
CONTINUOUS
 62
     3
 10
3811.617367
 20
3206.570619
 11
3787.927921
 21
3549.699688
  0
LINE
  8
CSLAYER3
  6
CONTINUOUS
 62
     3
 10
3717.562740
 20
3554.989133
 11
3717.562740
 21
3207.560561
  0
LINE
  8
CSLAYER3
  6
CONTINUOUS
 62
     4
 10
3717.562740
 20
3554.989133
 11
3787.927921
 21
3549.699688
  0
ENDBLK
  8
0
  0
BLOCK
  8
CSLAYER1
  2
BLKF0004
 70
   64
 10
0.0
 20
0.0
 30
0.0
  0
LINE
  8
CSLAYER3
  6
CONTINUOUS
 62
     3
 10
3426.886398
 20
2490.724244
 11
3426.886398
 21
2773.009958
  0
LINE
  8
CSLAYER3
  6
CONTINUOUS
 62
     3
 10
3434.819301
 20
2686.152816
 11
3415.978655
 21
2686.152816
  0
LINE
  8
CSLAYER3
  6
CONTINUOUS
 62
     3
 10
3426.886398
 20
2773.009958
 11
3415.978655
 21
2686.152816
  0
LINE
  8
CSLAYER3
  6
CONTINUOUS
 62
     3
 10
3434.819301
 20
2577.581387
 11
3415.978655
 21
2577.581387
  0
LINE
  8
CSLAYER3
  6
CONTINUOUS
 62
     3
 10
3415.978655
 20
2686.152816
 11
3434.819301
 21
2577.581387
  0
LINE
  8
CSLAYER3
  6
CONTINUOUS
 62
     3
 10
3434.819301
 20
2577.581387
 11
3426.886398
 21
2490.724244
  0
LINE
  8
CSLAYER3
  6
CONTINUOUS
 62
     3
 10
3426.886398
 20
2490.724244
 11
3415.978655
 21
2577.581387
  0
LINE
  8
CSLAYER3
  6
CONTINUOUS
 62
     3
 10
3415.978655
 20
2577.581387
 11
3434.819301
 21
2686.152816
  0
LINE
  8
CSLAYER3
  6
CONTINUOUS
 62
     3
 10
3434.819301
 20
2686.152816
 11
3426.886398
 21
2773.009958
  0
ENDBLK
  8
0
  0
BLOCK
  8
CSLAYER1
  2
BLKF0005
 70
   64
 10
0.0
 20
0.0
 30
0.0
  0
LINE
  8
CSLAYER3
  6
CONTINUOUS
 62
     8
 10
3450.236772
 20
2645.981990
 11
3462.844020
 21
2645.981990
  0
LINE
  8
CSLAYER3
  6
CONTINUOUS
 62
     8
 10
3444.457454
 20
2636.631990
 11
3444.457454
 21
2627.631990
  0
LINE
  8
CSLAYER3
  6
CONTINUOUS
 62
     8
 10
3470.457454
 20
2643.449109
 11
3470.457454
 21
2620.814871
  0
LINE
  8
CSLAYER3
  6
CONTINUOUS
 62
     8
 10
3450.236772
 20
2618.281990
 11
3462.844020
 21
2618.281990
  0
LINE
  8
CSLAYER3
  6
CONTINUOUS
 62
     8
 10
3432.457454
 20
2633.716990
 11
3444.457454
 21
2633.716990
  0
LINE
  8
CSLAYER3
  6
CONTINUOUS
 62
     8
 10
3432.457454
 20
2630.546990
 11
3444.457454
 21
2630.546990
  0
LINE
  8
CSLAYER3
  6
CONTINUOUS
 62
     8
 10
3432.457454
 20
2633.716990
 11
3432.457454
 21
2630.546990
  0
LINE
  8
CSLAYER3
  6
CONTINUOUS
 62
     8
 10
3462.844020
 20
2645.981990
 11
3462.844020
 21
2618.281990
  0
LINE
  8
CSLAYER3
  6
CONTINUOUS
 62
     8
 10
3462.844020
 20
2645.981990
 11
3462.844020
 21
2618.281990
  0
LINE
  8
CSLAYER3
  6
CONTINUOUS
 62
     8
 10
3462.844020
 20
2645.981990
 11
3462.844020
 21
2618.281990
  0
LINE
  8
CSLAYER3
  6
CONTINUOUS
 62
     8
 10
3462.562752
 20
2645.981990
 11
3462.562752
 21
2618.281990
  0
LINE
  8
CSLAYER3
  6
CONTINUOUS
 62
     8
 10
3450.236772
 20
2645.981990
 11
3450.236772
 21
2618.281990
  0
LINE
  8
CSLAYER3
  6
CONTINUOUS
 62
     8
 10
3450.236772
 20
2645.981990
 11
3446.457454
 21
2641.237959
  0
LINE
  8
CSLAYER3
  6
CONTINUOUS
 62
     8
 10
3446.457454
 20
2641.237959
 11
3446.457454
 21
2623.026021
  0
LINE
  8
CSLAYER3
  6
CONTINUOUS
 62
     8
 10
3446.457454
 20
2632.131990
 11
3444.457454
 21
2632.131990
  0
LINE
  8
CSLAYER3
  6
CONTINUOUS
 62
     8
 10
3446.457454
 20
2636.631990
 11
3444.457454
 21
2636.631990
  0
LINE
  8
CSLAYER3
  6
CONTINUOUS
 62
     8
 10
3450.236772
 20
2618.281990
 11
3450.236772
 21
2645.981990
  0
LINE
  8
CSLAYER3
  6
CONTINUOUS
 62
     8
 10
3450.236772
 20
2618.281990
 11
3446.457454
 21
2623.026021
  0
LINE
  8
CSLAYER3
  6
CONTINUOUS
 62
     8
 10
3446.457454
 20
2627.631990
 11
3444.457454
 21
2627.631990
  0
LINE
  8
CSLAYER3
  6
CONTINUOUS
 62
     8
 10
3462.844020
 20
2645.981990
 11
3470.457454
 21
2643.449109
  0
LINE
  8
CSLAYER3
  6
CONTINUOUS
 62
     8
 10
3462.844020
 20
2618.281990
 11
3470.457454
 21
2620.814871
  0
ENDBLK
  8
0
  0
BLOCK
  8
CSLAYER1
  2
BLKF0006
 70
   64
 10
0.0
 20
0.0
 30
0.0
  0
LINE
  8
CSLAYER3
  6
CONTINUOUS
 62
     3
 10
4170.716803
 20
3371.142849
 11
4171.462713
 21
3256.145268
  0
LINE
  8
CSLAYER3
  6
CONTINUOUS
 62
     3
 10
4046.970966
 20
3353.480233
 11
4170.716803
 21
3371.142849
  0
LINE
  8
CSLAYER3
  6
CONTINUOUS
 62
     3
 10
4029.265894
 20
3199.892815
 11
4122.247227
 21
3195.632876
  0
LINE
  8
CSLAYER3
  6
DOT
 62
     3
 10
4075.632860
 20
3266.070208
 11
4075.632860
 21
3195.374457
  0
LINE
  8
CSLAYER3
  6
DOT
 62
     3
 10
4071.290003
 20
3266.070208
 11
4071.290003
 21
3195.374457
  0
LINE
  8
CSLAYER3
  6
DOT
 62
     3
 10
4086.490003
 20
3276.927351
 11
4086.490003
 21
3194.316452
  0
LINE
  8
CSLAYER3
  6
DOT
 62
     3
 10
4060.432860
 20
3276.927351
 11
4060.432860
 21
3196.855663
  0
LINE
  8
CSLAYER3
  6
DOT
 62
     3
 10
4086.490003
 20
3276.927351
 11
4060.432860
 21
3276.927351
  0
LINE
  8
CSLAYER3
  6
DOT
 62
     3
 10
4075.632860
 20
3266.070208
 11
4071.290003
 21
3266.070208
  0
LINE
  8
CSLAYER3
  6
CONTINUOUS
 62
     4
 10
4029.239837
 20
3199.675021
 11
4047.652470
 21
3353.577506
  0
LINE
  8
CSLAYER3
  6
CONTINUOUS
 62
     3
 10
4171.462713
 20
3256.145268
 11
4122.247227
 21
3195.632876
  0
ENDBLK
  8
0
  0
BLOCK
  8
CSLAYER1
  2
BLKF0007
 70
   64
 10
0.0
 20
0.0
 30
0.0
  0
LINE
  8
CSLAYER3
  6
CONTINUOUS
 62
     3
 10
4170.716803
 20
2978.835416
 11
4171.462713
 21
3093.832997
  0
LINE
  8
CSLAYER3
  6
CONTINUOUS
 62
     3
 10
4046.970966
 20
2996.498033
 11
4170.716803
 21
2978.835416
  0
LINE
  8
CSLAYER3
  6
CONTINUOUS
 62
     3
 10
4029.265894
 20
3150.085450
 11
4122.247227
 21
3154.345390
  0
LINE
  8
CSLAYER3
  6
DOT
 62
     3
 10
4075.632860
 20
3083.908057
 11
4075.632860
 21
3154.603809
  0
LINE
  8
CSLAYER3
  6
DOT
 62
     3
 10
4071.290003
 20
3083.908057
 11
4071.290003
 21
3154.603809
  0
LINE
  8
CSLAYER3
  6
DOT
 62
     3
 10
4086.490003
 20
3073.050914
 11
4086.490003
 21
3155.661813
  0
LINE
  8
CSLAYER3
  6
DOT
 62
     3
 10
4060.432860
 20
3073.050914
 11
4060.432860
 21
3153.122602
  0
LINE
  8
CSLAYER3
  6
DOT
 62
     3
 10
4086.490003
 20
3073.050914
 11
4060.432860
 21
3073.050914
  0
LINE
  8
CSLAYER3
  6
DOT
 62
     3
 10
4075.632860
 20
3083.908057
 11
4071.290003
 21
3083.908057
  0
LINE
  8
CSLAYER3
  6
CONTINUOUS
 62
     4
 10
4029.239837
 20
3150.303245
 11
4047.652470
 21
2996.400760
  0
LINE
  8
CSLAYER3
  6
CONTINUOUS
 62
     3
 10
4171.462713
 20
3093.832997
 11
4122.247227
 21
3154.345390
  0
ENDBLK
  8
0
  0
BLOCK
  8
CSLAYER1
  2
BLKF0008
 70
   64
 10
0.0
 20
0.0
 30
0.0
  0
LINE
  8
CSLAYER3
  6
CONTINUOUS
 62
     3
 10
3077.384957
 20
3707.025405
 11
3077.384957
 21
2314.440487
  0
LINE
  8
CSLAYER3
  6
CONTINUOUS
 62
     3
 10
3177.384957
 20
3707.025405
 11
3177.384957
 21
2314.440487
  0
LINE
  8
CSLAYER3
  6
CONTINUOUS
 62
     3
 10
3277.384957
 20
3707.025405
 11
3277.384957
 21
2314.440487
  0
LINE
  8
CSLAYER3
  6
CONTINUOUS
 62
     3
 10
3377.384957
 20
3707.025405
 11
3377.384957
 21
2314.440487
  0
LINE
  8
CSLAYER3
  6
CONTINUOUS
 62
     3
 10
3477.384957
 20
3707.025405
 11
3477.384957
 21
2314.440487
  0
LINE
  8
CSLAYER3
  6
CONTINUOUS
 62
     3
 10
3577.384957
 20
3707.025405
 11
3577.384957
 21
2314.440487
  0
LINE
  8
CSLAYER3
  6
CONTINUOUS
 62
     3
 10
3677.384957
 20
3707.025405
 11
3677.384957
 21
2314.440487
  0
LINE
  8
CSLAYER3
  6
CONTINUOUS
 62
     3
 10
3777.384957
 20
3707.025405
 11
3777.384957
 21
2314.440487
  0
LINE
  8
CSLAYER3
  6
CONTINUOUS
 62
     3
 10
3877.384957
 20
3707.025405
 11
3877.384957
 21
2314.440487
  0
LINE
  8
CSLAYER3
  6
CONTINUOUS
 62
     3
 10
3977.384957
 20
3707.025405
 11
3977.384957
 21
2314.440487
  0
LINE
  8
CSLAYER3
  6
CONTINUOUS
 62
     3
 10
4077.384957
 20
3707.025405
 11
4077.384957
 21
2314.440487
  0
LINE
  8
CSLAYER3
  6
CONTINUOUS
 62
     3
 10
4177.384957
 20
3707.025405
 11
4177.384957
 21
2314.440487
  0
LINE
  8
CSLAYER3
  6
CONTINUOUS
 62
     3
 10
4277.384957
 20
3707.025405
 11
4277.384957
 21
2314.440487
  0
LINE
  8
CSLAYER3
  6
CONTINUOUS
 62
     3
 10
4377.384957
 20
3707.025405
 11
4377.384957
 21
2314.440487
  0
LINE
  8
CSLAYER3
  6
CONTINUOUS
 62
     3
 10
4477.384957
 20
3707.025405
 11
4477.384957
 21
2314.440487
  0
LINE
  8
CSLAYER3
  6
CONTINUOUS
 62
     3
 10
4577.384957
 20
3707.025405
 11
4577.384957
 21
2314.440487
  0
LINE
  8
CSLAYER3
  6
CONTINUOUS
 62
     3
 10
3077.384957
 20
2307.025405
 11
4577.384957
 21
2307.025405
  0
LINE
  8
CSLAYER3
  6
CONTINUOUS
 62
     3
 10
3077.384957
 20
2407.025405
 11
4577.384957
 21
2407.025405
  0
LINE
  8
CSLAYER3
  6
CONTINUOUS
 62
     3
 10
3077.384957
 20
2507.025405
 11
4577.384957
 21
2507.025405
  0
LINE
  8
CSLAYER3
  6
CONTINUOUS
 62
     3
 10
3077.384957
 20
2607.025405
 11
4577.384957
 21
2607.025405
  0
LINE
  8
CSLAYER3
  6
CONTINUOUS
 62
     3
 10
3077.384957
 20
2707.025405
 11
4577.384957
 21
2707.025405
  0
LINE
  8
CSLAYER3
  6
CONTINUOUS
 62
     3
 10
3077.384957
 20
2807.025405
 11
4577.384957
 21
2807.025405
  0
LINE
  8
CSLAYER3
  6
CONTINUOUS
 62
     3
 10
3077.384957
 20
2907.025405
 11
4577.384957
 21
2907.025405
  0
LINE
  8
CSLAYER3
  6
CONTINUOUS
 62
     3
 10
3077.384957
 20
3007.025405
 11
4577.384957
 21
3007.025405
  0
LINE
  8
CSLAYER3
  6
CONTINUOUS
 62
     3
 10
3077.384957
 20
3107.025405
 11
4577.384957
 21
3107.025405
  0
LINE
  8
CSLAYER3
  6
CONTINUOUS
 62
     3
 10
3077.384957
 20
3207.025405
 11
4577.384957
 21
3207.025405
  0
LINE
  8
CSLAYER3
  6
CONTINUOUS
 62
     3
 10
3077.384957
 20
3307.025405
 11
4577.384957
 21
3307.025405
  0
LINE
  8
CSLAYER3
  6
CONTINUOUS
 62
     3
 10
3077.384957
 20
3407.025405
 11
4577.384957
 21
3407.025405
  0
LINE
  8
CSLAYER3
  6
CONTINUOUS
 62
     3
 10
3077.384957
 20
3507.025405
 11
4577.384957
 21
3507.025405
  0
LINE
  8
CSLAYER3
  6
CONTINUOUS
 62
     3
 10
3077.384957
 20
3607.025405
 11
4577.384957
 21
3607.025405
  0
LINE
  8
CSLAYER3
  6
CONTINUOUS
 62
     3
 10
3077.384957
 20
3707.025405
 11
4577.384957
 21
3707.025405
  0
ENDBLK
  8
0
  0
ENDSEC
  0
SECTION
  2
ENTITIES
  0
INSERT
  8
CSLAYER1
  2
BLKF0000
 10
0.0
 20
0.0
 30
0.0
  0
LINE
  8
CSLAYER3
  6
CONTINUOUS
 62
     3
 10
4218.776960
 20
3174.989133
 11
3442.517259
 21
3174.989133
  0
LINE
  8
CSLAYER3
  6
CONTINUOUS
 62
     3
 10
3442.517259
 20
3196.703418
 11
3442.517259
 21
3153.274847
  0
LINE
  8
CSLAYER3
  6
CONTINUOUS
 62
     3
 10
4024.400813
 20
2632.131990
 11
4160.802242
 21
2632.131990
  0
LINE
  8
CSLAYER3
  6
CONTINUOUS
 62
     3
 10
4154.686527
 20
2632.131990
 11
4094.108460
 21
2638.502164
  0
ARC
  8
CSLAYER3
  6
CONTINUOUS
 62
     3
 10
4067.238065
 20
2359.628889
 40
280.164812
 50
84.496346
 51
96.029948
  0
ARC
  8
CSLAYER3
  6
CONTINUOUS
 62
     3
 10
4041.923653
 20
2607.870847
 40
30.650417
 50
97.718270
 51
123.147387
  0
ARC
  8
CSLAYER3
  6
CONTINUOUS
 62
     3
 10
4041.923653
 20
2656.393133
 40
30.650417
 50
236.852613
 51
262.281730
  0
ARC
  8
CSLAYER3
  6
CONTINUOUS
 62
     3
 10
4067.238065
 20
2904.635090
 40
280.164812
 50
263.970052
 51
275.503654
  0
LINE
  8
CSLAYER3
  6
CONTINUOUS
 62
     3
 10
4154.686527
 20
2632.131990
 11
4094.108460
 21
2625.761815
  0
ARC
  8
CSLAYER3
  6
CONTINUOUS
 62
     3
 10
4026.068923
 20
2632.131990
 40
1.668110
 50
122.845947
 51
237.154053
  0
LINE
  8
CSLAYER3
  6
CONTINUOUS
 62
     3
 10
4211.196035
 20
2749.876151
 11
4111.196165
 21
2749.714765
  0
LINE
  8
CSLAYER3
  6
CONTINUOUS
 62
     3
 10
3548.191312
 20
3202.131990
 11
3830.447965
 21
3202.131990
  0
LINE
  8
CSLAYER3
  6
CONTINUOUS
 62
     3
 10
3548.191312
 20
3147.846276
 11
3830.447965
 21
3147.846276
  0
LINE
  8
CSLAYER3
  6
CONTINUOUS
 62
     3
 10
3548.191312
 20
3202.131990
 11
3442.517259
 21
3196.703418
  0
LINE
  8
CSLAYER3
  6
CONTINUOUS
 62
     3
 10
3442.517259
 20
3153.274847
 11
3548.191312
 21
3147.846276
  0
LINE
  8
CSLAYER3
  6
CONTINUOUS
 62
     3
 10
4218.776960
 20
3178.246276
 11
3969.244740
 21
3178.246276
  0
LINE
  8
CSLAYER3
  6
CONTINUOUS
 62
     3
 10
4218.776960
 20
3171.731990
 11
3969.244740
 21
3171.731990
  0
LINE
  8
CSLAYER3
  6
CONTINUOUS
 62
     3
 10
3431.545287
 20
3033.846276
 11
3431.545287
 21
3316.131990
  0
LINE
  8
CSLAYER3
  6
CONTINUOUS
 62
     3
 10
3439.478191
 20
3229.274847
 11
3420.637545
 21
3229.274847
  0
LINE
  8
CSLAYER3
  6
CONTINUOUS
 62
     3
 10
3431.545287
 20
3316.131990
 11
3420.637545
 21
3229.274847
  0
LINE
  8
CSLAYER3
  6
CONTINUOUS
 62
     3
 10
3439.478191
 20
3120.703418
 11
3420.637545
 21
3120.703418
  0
LINE
  8
CSLAYER3
  6
CONTINUOUS
 62
     3
 10
3420.637545
 20
3229.274847
 11
3439.478191
 21
3120.703418
  0
LINE
  8
CSLAYER3
  6
CONTINUOUS
 62
     3
 10
3439.478191
 20
3120.703418
 11
3431.545287
 21
3033.846276
  0
LINE
  8
CSLAYER3
  6
CONTINUOUS
 62
     3
 10
3431.545287
 20
3033.846276
 11
3420.637545
 21
3120.703418
  0
LINE
  8
CSLAYER3
  6
CONTINUOUS
 62
     3
 10
3420.637545
 20
3120.703418
 11
3439.478191
 21
3229.274847
  0
LINE
  8
CSLAYER3
  6
CONTINUOUS
 62
     3
 10
3439.478191
 20
3229.274847
 11
3431.545287
 21
3316.131990
  0
LINE
  8
CSLAYER3
  6
CONTINUOUS
 62
     3
 10
3547.619963
 20
2606.682878
 11
3527.856919
 21
2547.474075
  0
LINE
  8
CSLAYER3
  6
CONTINUOUS
 62
     3
 10
3491.374402
 20
3156.531990
 11
3491.374402
 21
3193.446276
  0
LINE
  8
CSLAYER3
  6
CONTINUOUS
 62
     3
 10
3491.374402
 20
3156.531990
 11
3497.487547
 21
3156.531990
  0
LINE
  8
CSLAYER3
  6
CONTINUOUS
 62
     3
 10
3491.374402
 20
3193.446276
 11
3497.487547
 21
3193.446276
  0
LINE
  8
CSLAYER3
  6
CONTINUOUS
 62
     3
 10
3548.191312
 20
2826.474847
 11
3717.562740
 21
2826.474847
  0
LINE
  8
CSLAYER3
  6
CONTINUOUS
 62
     3
 10
3548.191312
 20
3067.503418
 11
3717.562740
 21
3067.503418
  0
LINE
  8
CSLAYER3
  6
CONTINUOUS
 62
     3
 10
3548.191312
 20
2987.160561
 11
3717.562740
 21
2987.160561
  0
LINE
  8
CSLAYER3
  6
CONTINUOUS
 62
     3
 10
3548.191312
 20
2906.817704
 11
3717.562740
 21
2906.817704
  0
LINE
  8
CSLAYER3
  6
CONTINUOUS
 62
     3
 10
3587.277026
 20
2794.989133
 11
3587.277026
 21
3554.989133
  0
LINE
  8
CSLAYER3
  6
CONTINUOUS
 62
     3
 10
3589.991312
 20
2794.989133
 11
3589.991312
 21
3554.989133
  0
LINE
  8
CSLAYER3
  6
CONTINUOUS
 62
     3
 10
3830.447965
 20
3202.131990
 11
4111.764788
 21
3194.140532
  0
LINE
  8
CSLAYER3
  6
CONTINUOUS
 62
     3
 10
3830.447965
 20
3147.846276
 11
4111.744210
 21
3155.837149
  0
LINE
  8
CSLAYER3
  6
CONTINUOUS
 62
     3
 10
4111.196165
 20
2555.159475
 11
4228.166158
 21
2562.524639
  0
LINE
  8
CSLAYER3
  6
CONTINUOUS
 62
     3
 10
4228.166158
 20
2562.524639
 11
4211.196035
 21
2749.876151
  0
LINE
  8
CSLAYER3
  6
CONTINUOUS
 62
     3
 10
4075.632860
 20
3261.846276
 11
4075.632860
 21
3088.131990
  0
LINE
  8
CSLAYER3
  6
CONTINUOUS
 62
     3
 10
4071.290003
 20
3261.846276
 11
4071.290003
 21
3088.131990
  0
LINE
  8
CSLAYER3
  6
CONTINUOUS
 62
     3
 10
4075.632860
 20
3261.846276
 11
4071.290003
 21
3261.846276
  0
LINE
  8
CSLAYER3
  6
CONTINUOUS
 62
     3
 10
4075.632860
 20
3088.131990
 11
4071.290003
 21
3088.131990
  0
LINE
  8
CSLAYER3
  6
CONTINUOUS
 62
     3
 10
3442.455468
 20
2632.131990
 11
3555.008618
 21
2632.131990
  0
LINE
  8
CSLAYER3
  6
CONTINUOUS
 62
     3
 10
4218.776960
 20
3178.246276
 11
4218.776960
 21
3171.731990
  0
LINE
  8
CSLAYER3
  6
CONTINUOUS
 62
     3
 10
4076.223836
 20
3261.022821
 11
4071.880979
 21
3261.022821
  0
TEXT
  8
CSLAYER3
 62
     3
 10
4100.368420
 20
1959.277704
 40
48.928967
 41
0.642211
  1
18.5dm
 50
0.000000
 51
0.000000
  7
FX_FONT
 72
     5
 11
4278.430408
 21
1959.277704
  0
CIRCLE
  8
CSLAYER3
  6
CONTINUOUS
 62
     3
 10
4073.461432
 20
2632.131990
 40
2.000000
  0
LINE
  8
CSLAYER3
  6
CONTINUOUS
 62
     3
 10
3488.081942
 20
3195.642010
 11
3488.081942
 21
3154.336256
  0
TEXT
  8
CSLAYER3
 62
     3
 10
3896.976933
 20
2135.332523
 40
74.100090
 41
0.903126
  1
Akabara13
 50
0.000000
 51
0.000000
  7
FX_FONT
 72
     5
 11
4476.965450
 21
2135.332523
  0
ARC
  8
CSLAYER3
  6
CONTINUOUS
 62
     3
 10
4073.461432
 20
2644.131990
 40
3.500000
 50
0.000000
 51
180.000000
  0
LINE
  8
CSLAYER3
  6
CONTINUOUS
 62
     3
 10
4076.961432
 20
2644.131990
 11
4076.961432
 21
2632.131990
  0
LINE
  8
CSLAYER3
  6
CONTINUOUS
 62
     3
 10
4069.961432
 20
2644.131990
 11
4069.961432
 21
2632.131990
  0
ARC
  8
CSLAYER3
  6
CONTINUOUS
 62
     3
 10
4073.461432
 20
2632.131990
 40
3.500000
 50
180.000000
 51
360.000000
  0
LINE
  8
CSLAYER3
  6
CONTINUOUS
 62
     3
 10
4112.177378
 20
2609.600726
 11
4121.996121
 21
2609.600726
  0
LINE
  8
CSLAYER3
  6
CONTINUOUS
 62
     3
 10
4121.996121
 20
2609.600726
 11
4121.996121
 21
2593.845068
  0
LINE
  8
CSLAYER3
  6
CONTINUOUS
 62
     3
 10
4121.996121
 20
2593.845068
 11
4112.177378
 21
2593.845068
  0
LINE
  8
CSLAYER3
  6
CONTINUOUS
 62
     3
 10
4112.177378
 20
2593.845068
 11
4112.177378
 21
2609.600726
  0
LINE
  8
CSLAYER3
  6
CONTINUOUS
 62
     3
 10
4111.257956
 20
3178.246276
 11
4111.257956
 21
3167.989133
  0
CIRCLE
  8
CSLAYER3
  6
CONTINUOUS
 62
     3
 10
4111.257956
 20
3163.989133
 40
1.000000
  0
ARC
  8
CSLAYER3
  6
CONTINUOUS
 62
     3
 10
4111.257956
 20
3163.989133
 40
4.000000
 50
90.000000
 51
320.352925
  0
LINE
  8
CSLAYER3
  6
CONTINUOUS
 62
     3
 10
4122.909492
 20
3171.780849
 11
4114.337913
 21
3161.436905
  0
LINE
  8
CSLAYER3
  6
CONTINUOUS
 62
     3
 10
3634.641312
 20
3198.874847
 11
3634.641312
 21
3151.103418
  0
CIRCLE
  8
CSLAYER3
  6
CONTINUOUS
 62
     3
 10
3634.641312
 20
3174.989133
 40
10.000000
  0
INSERT
  8
CSLAYER1
  2
BLKF0001
 10
0.0
 20
0.0
 30
0.0
  0
INSERT
  8
CSLAYER1
  2
BLKF0002
 10
0.0
 20
0.0
 30
0.0
  0
INSERT
  8
CSLAYER1
  2
BLKF0003
 10
0.0
 20
0.0
 30
0.0
  0
TEXT
  8
CSLAYER3
 62
     3
 10
4007.568012
 20
2047.414299
 40
74.201187
 41
0.534483
  1
2004/06/13
 50
0.000000
 51
0.000000
  7
FX_FONT
 72
     5
 11
4390.940777
 21
2047.414299
  0
INSERT
  8
CSLAYER1
  2
BLKF0004
 10
0.0
 20
0.0
 30
0.0
  0
INSERT
  8
CSLAYER1
  2
BLKF0005
 10
0.0
 20
0.0
 30
0.0
  0
INSERT
  8
CSLAYER1
  2
BLKF0006
 10
0.0
 20
0.0
 30
0.0
  0
INSERT
  8
CSLAYER1
  2
BLKF0007
 10
0.0
 20
0.0
 30
0.0
  0
LINE
  8
CSLAYER3
  6
CONTINUOUS
 62
     3
 10
4111.764788
 20
3194.140532
 11
4111.744210
 21
3155.837149
  0
LINE
  8
CSLAYER3
  6
CONTINUOUS
 62
     3
 10
3525.751287
 20
2547.474075
 11
3442.455468
 21
2561.192536
  0
LINE
  8
CSLAYER3
  6
CONTINUOUS
 62
     3
 10
4111.196165
 20
2749.714765
 11
4111.196165
 21
2555.159475
  0
ARC
  8
CSLAYER3
  6
CONTINUOUS
 62
     3
 10
4111.196165
 20
2695.429051
 40
54.285714
 50
90.000000
 51
112.350642
  0
LINE
  8
CSLAYER3
  6
CONTINUOUS
 62
     3
 10
4090.552732
 20
2745.636495
 11
4018.318948
 21
2707.250657
  0
LINE
  8
CSLAYER3
  6
CONTINUOUS
 62
     3
 10
4111.196165
 20
2555.159475
 11
3970.173662
 21
2568.920403
  0
ARC
  8
CSLAYER3
  6
CONTINUOUS
 62
     3
 10
3962.007004
 20
2813.217468
 40
120.000000
 50
261.835829
 51
297.986674
  0
LINE
  8
CSLAYER3
  6
CONTINUOUS
 62
     3
 10
3970.173662
 20
2568.920403
 11
3600.243807
 21
2547.474075
  0
LINE
  8
CSLAYER3
  6
CONTINUOUS
 62
     3
 10
3944.965809
 20
2694.433641
 11
3655.550277
 21
2723.942985
  0
LINE
  8
CSLAYER3
  6
CENTER
 62
     3
 10
3442.455468
 20
2632.131990
 11
4111.196165
 21
2632.131990
  0
LINE
  8
CSLAYER3
  6
CONTINUOUS
 62
     3
 10
3563.857315
 20
2724.671951
 11
3655.550277
 21
2723.942985
  0
LINE
  8
CSLAYER3
  6
CONTINUOUS
 62
     3
 10
3526.008811
 20
2718.473351
 11
3563.857315
 21
2724.671951
  0
LINE
  8
CSLAYER3
  6
CONTINUOUS
 62
     3
 10
3526.008811
 20
2718.473351
 11
3442.455468
 21
2672.798031
  0
LINE
  8
CSLAYER3
  6
CONTINUOUS
 62
     3
 10
3483.885141
 20
2694.203669
 11
3511.573569
 21
2678.906305
  0
LINE
  8
CSLAYER3
  6
CONTINUOUS
 62
     3
 10
3511.573569
 20
2678.906305
 11
3648.722188
 21
2673.948240
  0
LINE
  8
CSLAYER3
  6
CONTINUOUS
 62
     3
 10
3648.722188
 20
2673.948240
 11
3718.937837
 21
2679.633718
  0
LINE
  8
CSLAYER3
  6
CONTINUOUS
 62
     3
 10
3442.455468
 20
2672.798031
 11
3442.455468
 21
2561.192536
  0
LINE
  8
CSLAYER3
  6
CONTINUOUS
 62
     3
 10
3525.751287
 20
2547.474075
 11
3600.243807
 21
2547.474075
  0
ARC
  8
CSLAYER3
  6
CONTINUOUS
 62
     3
 10
3587.131709
 20
2562.267259
 40
86.879767
 50
88.907661
 51
107.434077
  0
ARC
  8
CSLAYER3
  6
CONTINUOUS
 62
     3
 10
3568.765325
 20
2619.751605
 40
26.535094
 50
106.786530
 51
130.089721
  0
ARC
  8
CSLAYER3
  6
CONTINUOUS
 62
     3
 10
3561.398501
 20
2631.283566
 40
13.091606
 50
137.950679
 51
171.638595
  0
ARC
  8
CSLAYER3
  6
CONTINUOUS
 62
     3
 10
3568.765325
 20
2644.512375
 40
26.535094
 50
229.910279
 51
253.213470
  0
ARC
  8
CSLAYER3
  6
CONTINUOUS
 62
     3
 10
3561.398501
 20
2632.980414
 40
13.091606
 50
188.361405
 51
222.049321
  0
ARC
  8
CSLAYER3
  6
CONTINUOUS
 62
     3
 10
3587.131709
 20
2701.996721
 40
86.879767
 50
252.565923
 51
271.092339
  0
ARC
  8
CSLAYER3
  6
CONTINUOUS
 62
     3
 10
3567.199457
 20
3433.000647
 40
818.152781
 50
271.512033
 51
273.819036
  0
LINE
  8
CSLAYER3
  6
CONTINUOUS
 62
     3
 10
3621.692860
 20
2616.664661
 11
3664.379218
 21
2621.116386
  0
LINE
  8
CSLAYER3
  6
CONTINUOUS
 62
     3
 10
3664.379218
 20
2621.116386
 11
3676.964607
 21
2623.003693
  0
LINE
  8
CSLAYER3
  6
CONTINUOUS
 62
     3
 10
3676.964607
 20
2623.003693
 11
3714.731949
 21
2629.171209
  0
LINE
  8
CSLAYER3
  6
CONTINUOUS
 62
     3
 10
3714.731949
 20
2635.092771
 11
3676.964607
 21
2641.260286
  0
LINE
  8
CSLAYER3
  6
CONTINUOUS
 62
     3
 10
3664.379218
 20
2643.147594
 11
3621.692860
 21
2647.599319
  0
LINE
  8
CSLAYER3
  6
CONTINUOUS
 62
     3
 10
3676.964607
 20
2641.260286
 11
3664.379218
 21
2643.147594
  0
ARC
  8
CSLAYER3
  6
CONTINUOUS
 62
     3
 10
3567.199457
 20
1831.263333
 40
818.152781
 50
86.180964
 51
88.487967
  0
ARC
  8
CSLAYER3
  6
CONTINUOUS
 62
     3
 10
3714.248445
 20
2632.131990
 40
3.000000
 50
-80.725302
 51
80.725302
  0
LINE
  8
CSLAYER3
  6
CONTINUOUS
 62
     3
 10
3548.446052
 20
2633.187303
 11
3548.446052
 21
2631.076677
  0
CIRCLE
  8
CSLAYER3
  6
CONTINUOUS
 62
     3
 10
4073.399641
 20
2632.131990
 40
3.000000
  0
LINE
  8
CSLAYER3
  6
CONTINUOUS
 62
     3
 10
3718.937837
 20
2679.633718
 11
3691.687871
 21
2720.258328
  0
LINE
  8
CSLAYER3
  6
CONTINUOUS
 62
     3
 10
3680.971211
 20
2721.351019
 11
3692.762288
 21
2677.514240
  0
LINE
  8
CSLAYER3
  6
CONTINUOUS
 62
     3
 10
3547.619963
 20
2606.682878
 11
3570.125795
 21
2478.451854
  0
CIRCLE
  8
CSLAYER3
  6
CONTINUOUS
 62
     3
 10
3570.125795
 20
2478.451854
 40
16.712911
  0
LINE
  8
CSLAYER3
  6
CONTINUOUS
 62
     3
 10
4095.338148
 20
2556.706895
 11
4113.889108
 21
2535.973761
  0
LINE
  8
CSLAYER3
  6
CONTINUOUS
 62
     3
 10
4113.889108
 20
2535.973761
 11
4122.512495
 21
2537.541649
  0
LINE
  8
CSLAYER3
  6
CONTINUOUS
 62
     3
 10
4301.348952
 20
2562.082949
 11
3364.835439
 21
2433.567437
  0
LINE
  8
CSLAYER3
  6
CONTINUOUS
 62
     3
 10
3548.191312
 20
3523.503418
 11
3717.562740
 21
3523.503418
  0
LINE
  8
CSLAYER3
  6
CONTINUOUS
 62
     3
 10
3548.191312
 20
3282.474847
 11
3717.562740
 21
3282.474847
  0
LINE
  8
CSLAYER3
  6
CONTINUOUS
 62
     3
 10
3548.191312
 20
3362.817704
 11
3717.562740
 21
3362.817704
  0
LINE
  8
CSLAYER3
  6
CONTINUOUS
 62
     3
 10
3548.191312
 20
3443.160561
 11
3717.562740
 21
3443.160561
  0
INSERT
  8
CSLAYER1
  2
BLKF0008
 10
0.0
 20
0.0
 30
0.0
  0
ENDSEC
  0
EOF
