  0
SECTION
  2
HEADER
  9
$ACADVER
  1
AC1006
  9
$INSBASE
 10
2590.011220
 20
2132.025405
 30
0.0
  9
$EXTMIN
 10
2590.011220
 20
2132.025405
  9
$EXTMAX
 10
5064.758694
 20
3882.025405
  9
$LIMMIN
 10
2590.011220
 20
2132.025405
  9
$LIMMAX
 10
5064.758694
 20
3882.025405
  9
$VIEWCTR
 10
3827.384957
 20
3007.025405
  9
$VIEWSIZE
 40
1750.000000
  9
$SNAPMODE
 70
     0
  9
$SNAPUNIT
 10
1.0
 20
1.0
  9
$SNAPBASE
 10
0.0
 20
0.0
  9
$SNAPANG
 50
0.0
  9
$SNAPSTYLE
 70
     0
  9
$SNAPISOPAIR
 70
     0
  9
$GRIDMODE
 70
     0
  9
$GRIDUNIT
 10
0.0
 20
0.0
  9
$ORTHOMODE
 70
     0
  9
$REGENMODE
 70
     1
  9
$FILLMODE
 70
     1
  9
$QTEXTMODE
 70
     0
  9
$DRAGMODE
 70
     2
  9
$LTSCALE
 40
15.000000
  9
$OSMODE
 70
     0
  9
$ATTMODE
 70
     1
  9
$TEXTSIZE
 40
0.2
  9
$TRACEWID
 40
0.05
  9
$TEXTSTYLE
  7
STANDARD
  9
$CLAYER
  8
CSLAYER3
  9
$CELTYPE
  6
BYLAYER
  9
$CECOLOR
 62
   256
  9
$DIMSCALE
 40
1.0
  9
$DIMASZ
 40
0.18
  9
$DIMEXO
 40
0.0625
  9
$DIMDLI
 40
0.38
  9
$DIMRND
 40
0.0
  9
$DIMDLE
 40
0.0
  9
$DIMEXE
 40
0.18
  9
$DIMTP
 40
0.0
  9
$DIMTM
 40
0.0
  9
$DIMTXT
 40
0.18
  9
$DIMCEN
 40
0.09
  9
$DIMTSZ
 40
0.0
  9
$DIMTOL
 70
     0
  9
$DIMLIM
 70
     0
  9
$DIMTIH
 70
     1
  9
$DIMTOH
 70
     1
  9
$DIMSE1
 70
     0
  9
$DIMSE2
 70
     0
  9
$DIMTAD
 70
     0
  9
$DIMZIN
 70
     0
  9
$DIMBLK
  1

  9
$LUNITS
 70
     2
  9
$LUPREC
 70
     4
  9
$AXISMODE
 70
     0
  9
$AXISUNIT
 10
0.0
 20
0.0
  9
$SKETCHINC
 40
0.1
  9
$FILLETRAD
 40
0.0
  9
$AUNITS
 70
     0
  9
$AUPREC
 70
     0
  9
$MENU
  1
ACAD
  9
$ELEVATION
 40
0.0
  9
$THICKNESS
 40
0.0
  9
$VIEWDIR
 10
0.0
 20
0.0
 30
1.0
  9
$LIMCHECK
 70
     0
  9
$BLIPMODE
 70
     1
  9
$CHAMFERA
 40
0.0
  9
$CHAMFERB
 40
0.0
  9
$FASTZOOM
 70
     1
  9
$SKPOLY
 70
     0
  9
$TDCREATE
 40
2453291.000000
  9
$TDUPDATE
 40
2453291.000000
  9
$TDINDWG
 40
0.0
  9
$TDUSRTIMER
 40
0.0
  9
$USRTIMER
 70
     1
  9
$ANGBASE
 50
0.0
  9
$ANGDIR
 70
     0
  9
$PDMODE
 70
     0
  9
$PDSIZE
 40
0.0
  9
$PLINEWID
 40
0.0
  9
$COORDS
 70
     0
  9
$USERI1
 70
     0
  9
$USERI2
 70
     0
  9
$USERI3
 70
     0
  9
$USERI4
 70
     0
  9
$USERI5
 70
     0
  9
$USERR1
 40
0.0
  9
$USERR2
 40
0.0
  9
$USERR3
 40
0.0
  9
$USERR4
 40
0.0
  9
$USERR5
 40
0.0
  0
ENDSEC
  0
SECTION
  2
TABLES
  0
TABLE
  2
LTYPE
 70
     9
  0
LTYPE
  2
CONTINUOUS
 70
    64
  3
Solid line
 72
    65
 73
     0
 40
0.0
  0
LTYPE
  2
DASHED
 70
    64
  3
__ __ __ __ __ __ __ __ __ __ __ __ __ __ __
 72
    65
 73
     2
 40
0.75
 49
0.5
 49
-0.25
  0
LTYPE
  2
HIDDEN
 70
    64
  3
_ _ _ _ _ _ _ _ _ _ _ _ _ _ _ _ _ _ _ _ _ _ _
 72
    65
 73
     2
 40
0.375
 49
0.25
 49
-0.125
  0
LTYPE
  2
DOT
 70
    64
  3
...............................................
 72
    65
 73
     2
 40
0.25
 49
0.0
 49
-0.25
  0
LTYPE
  2
DASHDOT
 70
    64
  3
__ . __ . __ . __ . __ . __ . __ . __ . __ . __
 72
    65
 73
     4
 40
1.0
 49
0.5
 49
-0.25
 49
0.0
 49
-0.25
  0
LTYPE
  2
DIVIDE
 70
    64
  3
__ . . __ . . __ . . __ . . __ . . __ . . __
 72
    65
 73
     6
 40
1.25
 49
0.5
 49
-0.25
 49
0.0
 49
-0.25
 49
0.0
 49
-0.25
  0
LTYPE
  2
CENTER
 70
    64
  3
____ _ ____ _ ____ _ ____ _ ____ _ ____ _ ____ 
 72
    65
 73
     4
 40
2.0
 49
1.25
 49
-0.25
 49
0.25
 49
-0.25
  0
LTYPE
  2
PHANTOM
 70
    64
  3
______  __  __  ______  __  __  ______  __  __ 
 72
    65
 73
     6
 40
2.5
 49
1.25
 49
-0.25
 49
0.25
 49
-0.25
 49
0.25
 49
-0.25
  0
LTYPE
  2
BORDER
 70
    64
  3
__ __ . __ __ . __ __ . __ __ . __ __ . __ __ .
 72
    65
 73
     6
 40
1.75
 49
0.5
 49
-0.25
 49
0.5
 49
-0.25
 49
0.0
 49
-0.25
  0
ENDTAB
  0
TABLE
  2
LAYER
 70
    16
  0
LAYER
  2
CSLAYER1
 70
    64
 62
     7
  6
CONTINUOUS
  0
LAYER
  2
CSLAYER2
 70
    64
 62
     7
  6
CONTINUOUS
  0
LAYER
  2
CSLAYER3
 70
    64
 62
     7
  6
CONTINUOUS
  0
LAYER
  2
CSLAYER4
 70
    64
 62
     7
  6
CONTINUOUS
  0
LAYER
  2
CSLAYER5
 70
    64
 62
     7
  6
CONTINUOUS
  0
LAYER
  2
CSLAYER6
 70
    64
 62
     7
  6
CONTINUOUS
  0
LAYER
  2
CSLAYER7
 70
    64
 62
     7
  6
CONTINUOUS
  0
LAYER
  2
CSLAYER8
 70
    64
 62
     7
  6
CONTINUOUS
  0
LAYER
  2
CSLAYER9
 70
    64
 62
     7
  6
CONTINUOUS
  0
LAYER
  2
CSLAYER10
 70
    64
 62
     7
  6
CONTINUOUS
  0
LAYER
  2
CSLAYER11
 70
    64
 62
     7
  6
CONTINUOUS
  0
LAYER
  2
CSLAYER12
 70
    64
 62
     7
  6
CONTINUOUS
  0
LAYER
  2
CSLAYER13
 70
    64
 62
     7
  6
CONTINUOUS
  0
LAYER
  2
CSLAYER14
 70
    64
 62
     7
  6
CONTINUOUS
  0
LAYER
  2
CSLAYER15
 70
    64
 62
     7
  6
CONTINUOUS
  0
LAYER
  2
CSLAYER16
 70
    64
 62
     7
  6
CONTINUOUS
  0
ENDTAB
  0
TABLE
  2
STYLE
 70
     1
  0
STYLE
  2
FX_FONT
 70
     0
 40
1.0
 41
1.0
 50
0.0
 71
     0
 42
1.0
  3
monotxt
  4
bigfont
  0
ENDTAB
  0
TABLE
  2
VIEW
 70
     0
  0
ENDTAB
  0
ENDSEC
  0
SECTION
  2
BLOCKS
  0
BLOCK
  8
CSLAYER1
  2
BLKF0000
 70
   64
 10
0.0
 20
0.0
 30
0.0
  0
LINE
  8
CSLAYER3
  6
CONTINUOUS
 62
     3
 10
3077.384957
 20
3707.025405
 11
3077.384957
 21
2314.440487
  0
LINE
  8
CSLAYER3
  6
CONTINUOUS
 62
     3
 10
3177.384957
 20
3707.025405
 11
3177.384957
 21
2314.440487
  0
LINE
  8
CSLAYER3
  6
CONTINUOUS
 62
     3
 10
3277.384957
 20
3707.025405
 11
3277.384957
 21
2314.440487
  0
LINE
  8
CSLAYER3
  6
CONTINUOUS
 62
     3
 10
3377.384957
 20
3707.025405
 11
3377.384957
 21
2314.440487
  0
LINE
  8
CSLAYER3
  6
CONTINUOUS
 62
     3
 10
3477.384957
 20
3707.025405
 11
3477.384957
 21
2314.440487
  0
LINE
  8
CSLAYER3
  6
CONTINUOUS
 62
     3
 10
3577.384957
 20
3707.025405
 11
3577.384957
 21
2314.440487
  0
LINE
  8
CSLAYER3
  6
CONTINUOUS
 62
     3
 10
3677.384957
 20
3707.025405
 11
3677.384957
 21
2314.440487
  0
LINE
  8
CSLAYER3
  6
CONTINUOUS
 62
     3
 10
3777.384957
 20
3707.025405
 11
3777.384957
 21
2314.440487
  0
LINE
  8
CSLAYER3
  6
CONTINUOUS
 62
     3
 10
3877.384957
 20
3707.025405
 11
3877.384957
 21
2314.440487
  0
LINE
  8
CSLAYER3
  6
CONTINUOUS
 62
     3
 10
3977.384957
 20
3707.025405
 11
3977.384957
 21
2314.440487
  0
LINE
  8
CSLAYER3
  6
CONTINUOUS
 62
     3
 10
4077.384957
 20
3707.025405
 11
4077.384957
 21
2314.440487
  0
LINE
  8
CSLAYER3
  6
CONTINUOUS
 62
     3
 10
4177.384957
 20
3707.025405
 11
4177.384957
 21
2314.440487
  0
LINE
  8
CSLAYER3
  6
CONTINUOUS
 62
     3
 10
4277.384957
 20
3707.025405
 11
4277.384957
 21
2314.440487
  0
LINE
  8
CSLAYER3
  6
CONTINUOUS
 62
     3
 10
4377.384957
 20
3707.025405
 11
4377.384957
 21
2314.440487
  0
LINE
  8
CSLAYER3
  6
CONTINUOUS
 62
     3
 10
4477.384957
 20
3707.025405
 11
4477.384957
 21
2314.440487
  0
LINE
  8
CSLAYER3
  6
CONTINUOUS
 62
     3
 10
4577.384957
 20
3707.025405
 11
4577.384957
 21
2314.440487
  0
LINE
  8
CSLAYER3
  6
CONTINUOUS
 62
     3
 10
3077.384957
 20
2307.025405
 11
4577.384957
 21
2307.025405
  0
LINE
  8
CSLAYER3
  6
CONTINUOUS
 62
     3
 10
3077.384957
 20
2407.025405
 11
4577.384957
 21
2407.025405
  0
LINE
  8
CSLAYER3
  6
CONTINUOUS
 62
     3
 10
3077.384957
 20
2507.025405
 11
4577.384957
 21
2507.025405
  0
LINE
  8
CSLAYER3
  6
CONTINUOUS
 62
     3
 10
3077.384957
 20
2607.025405
 11
4577.384957
 21
2607.025405
  0
LINE
  8
CSLAYER3
  6
CONTINUOUS
 62
     3
 10
3077.384957
 20
2707.025405
 11
4577.384957
 21
2707.025405
  0
LINE
  8
CSLAYER3
  6
CONTINUOUS
 62
     3
 10
3077.384957
 20
2807.025405
 11
4577.384957
 21
2807.025405
  0
LINE
  8
CSLAYER3
  6
CONTINUOUS
 62
     3
 10
3077.384957
 20
2907.025405
 11
4577.384957
 21
2907.025405
  0
LINE
  8
CSLAYER3
  6
CONTINUOUS
 62
     3
 10
3077.384957
 20
3007.025405
 11
4577.384957
 21
3007.025405
  0
LINE
  8
CSLAYER3
  6
CONTINUOUS
 62
     3
 10
3077.384957
 20
3107.025405
 11
4577.384957
 21
3107.025405
  0
LINE
  8
CSLAYER3
  6
CONTINUOUS
 62
     3
 10
3077.384957
 20
3207.025405
 11
4577.384957
 21
3207.025405
  0
LINE
  8
CSLAYER3
  6
CONTINUOUS
 62
     3
 10
3077.384957
 20
3307.025405
 11
4577.384957
 21
3307.025405
  0
LINE
  8
CSLAYER3
  6
CONTINUOUS
 62
     3
 10
3077.384957
 20
3407.025405
 11
4577.384957
 21
3407.025405
  0
LINE
  8
CSLAYER3
  6
CONTINUOUS
 62
     3
 10
3077.384957
 20
3507.025405
 11
4577.384957
 21
3507.025405
  0
LINE
  8
CSLAYER3
  6
CONTINUOUS
 62
     3
 10
3077.384957
 20
3607.025405
 11
4577.384957
 21
3607.025405
  0
LINE
  8
CSLAYER3
  6
CONTINUOUS
 62
     3
 10
3077.384957
 20
3707.025405
 11
4577.384957
 21
3707.025405
  0
ENDBLK
  8
0
  0
BLOCK
  8
CSLAYER1
  2
BLKF0001
 70
   64
 10
0.0
 20
0.0
 30
0.0
  0
LINE
  8
CSLAYER3
  6
CONTINUOUS
 62
     3
 10
4163.668070
 20
3017.866700
 11
4164.413981
 21
3132.864281
  0
LINE
  8
CSLAYER3
  6
CONTINUOUS
 62
     3
 10
4039.922234
 20
3035.529317
 11
4163.668070
 21
3017.866700
  0
LINE
  8
CSLAYER3
  6
CONTINUOUS
 62
     3
 10
4064.241271
 20
3191.042068
 11
4115.198495
 21
3193.376674
  0
LINE
  8
CSLAYER3
  6
DOT
 62
     7
 10
4068.584128
 20
3122.939341
 11
4068.584128
 21
3191.241036
  0
LINE
  8
CSLAYER3
  6
DOT
 62
     7
 10
4064.241271
 20
3122.939341
 11
4064.241271
 21
3191.042068
  0
LINE
  8
CSLAYER3
  6
DOT
 62
     7
 10
4079.441271
 20
3112.082198
 11
4079.441271
 21
3191.738456
  0
LINE
  8
CSLAYER3
  6
DOT
 62
     7
 10
4053.384128
 20
3112.082198
 11
4053.384128
 21
3190.080519
  0
LINE
  8
CSLAYER3
  6
DOT
 62
     7
 10
4079.441271
 20
3112.082198
 11
4053.384128
 21
3112.082198
  0
LINE
  8
CSLAYER3
  6
DOT
 62
     7
 10
4068.584128
 20
3122.939341
 11
4064.241271
 21
3122.939341
  0
LINE
  8
CSLAYER3
  6
CONTINUOUS
 62
     4
 10
4022.429836
 20
3187.339092
 11
4040.603738
 21
3035.432044
  0
LINE
  8
CSLAYER3
  6
CONTINUOUS
 62
     3
 10
4068.584128
 20
3191.241036
 11
4068.584128
 21
3194.969868
  0
LINE
  8
CSLAYER3
  6
CONTINUOUS
 62
     3
 10
4064.241271
 20
3191.042068
 11
4064.241271
 21
3194.585248
  0
LINE
  8
CSLAYER3
  6
DOT
 62
     7
 10
4064.241271
 20
3194.585248
 11
4064.241271
 21
3207.025405
  0
LINE
  8
CSLAYER3
  6
DOT
 62
     7
 10
4068.584128
 20
3194.969868
 11
4068.584128
 21
3207.025405
  0
ENDBLK
  8
0
  0
BLOCK
  8
CSLAYER1
  2
BLKF0002
 70
   64
 10
0.0
 20
0.0
 30
0.0
  0
LINE
  8
CSLAYER3
  6
CONTINUOUS
 62
     3
 10
4163.668070
 20
3396.184109
 11
4164.413981
 21
3281.186528
  0
LINE
  8
CSLAYER3
  6
CONTINUOUS
 62
     3
 10
4039.922234
 20
3378.521493
 11
4163.668070
 21
3396.184109
  0
LINE
  8
CSLAYER3
  6
CONTINUOUS
 62
     3
 10
4064.241271
 20
3223.008741
 11
4115.198495
 21
3220.674136
  0
LINE
  8
CSLAYER3
  6
DOT
 62
     7
 10
4068.584128
 20
3291.111468
 11
4068.584128
 21
3222.809773
  0
LINE
  8
CSLAYER3
  6
DOT
 62
     7
 10
4064.241271
 20
3291.111468
 11
4064.241271
 21
3223.008741
  0
LINE
  8
CSLAYER3
  6
DOT
 62
     7
 10
4079.441271
 20
3301.968611
 11
4079.441271
 21
3222.312353
  0
LINE
  8
CSLAYER3
  6
DOT
 62
     7
 10
4053.384128
 20
3301.968611
 11
4053.384128
 21
3223.970290
  0
LINE
  8
CSLAYER3
  6
DOT
 62
     7
 10
4079.441271
 20
3301.968611
 11
4053.384128
 21
3301.968611
  0
LINE
  8
CSLAYER3
  6
DOT
 62
     7
 10
4068.584128
 20
3291.111468
 11
4064.241271
 21
3291.111468
  0
LINE
  8
CSLAYER3
  6
CONTINUOUS
 62
     4
 10
4022.429836
 20
3226.711717
 11
4040.603738
 21
3378.618766
  0
LINE
  8
CSLAYER3
  6
DOT
 62
     7
 10
4068.584128
 20
3219.080941
 11
4068.584128
 21
3207.025405
  0
LINE
  8
CSLAYER3
  6
CONTINUOUS
 62
     3
 10
4068.584128
 20
3222.809773
 11
4068.584128
 21
3219.080941
  0
LINE
  8
CSLAYER3
  6
CONTINUOUS
 62
     3
 10
4064.241271
 20
3223.008741
 11
4064.241271
 21
3219.465561
  0
LINE
  8
CSLAYER3
  6
DOT
 62
     7
 10
4064.241271
 20
3219.465561
 11
4064.241271
 21
3207.025405
  0
LINE
  8
CSLAYER3
  6
CONTINUOUS
 62
     3
 10
4164.413981
 20
3281.186528
 11
4115.198495
 21
3220.674136
  0
ENDBLK
  8
0
  0
BLOCK
  8
CSLAYER1
  2
BLKF0003
 70
   64
 10
0.0
 20
0.0
 30
0.0
  0
LINE
  8
CSLAYER3
  6
CONTINUOUS
 62
     3
 10
3455.406736
 20
2704.834303
 11
3455.406736
 21
2664.168262
  0
LINE
  8
CSLAYER3
  6
CONTINUOUS
 62
     3
 10
3491.583206
 20
2614.168262
 11
3455.406736
 21
2664.168262
  0
LINE
  8
CSLAYER3
  6
CONTINUOUS
 62
     3
 10
3516.269193
 20
2614.168262
 11
3480.092722
 21
2664.168262
  0
LINE
  8
CSLAYER3
  6
CONTINUOUS
 62
     3
 10
3516.269193
 20
2614.168262
 11
3491.583206
 21
2614.168262
  0
LINE
  8
CSLAYER3
  6
CONTINUOUS
 62
     3
 10
3480.092722
 20
2664.168262
 11
3480.092722
 21
2705.653907
  0
LINE
  8
CSLAYER3
  6
CONTINUOUS
 62
     3
 10
3455.406736
 20
2704.834303
 11
3480.092722
 21
2705.653907
  0
ENDBLK
  8
0
  0
BLOCK
  8
CSLAYER1
  2
BLKF0004
 70
   64
 10
0.0
 20
0.0
 30
0.0
  0
LINE
  8
CSLAYER3
  6
CONTINUOUS
 62
     3
 10
3829.514701
 20
2684.168262
 11
3815.044113
 21
2664.168262
  0
LINE
  8
CSLAYER3
  6
CONTINUOUS
 62
     3
 10
3829.514701
 20
2644.168262
 11
3815.044113
 21
2664.168262
  0
LINE
  8
CSLAYER3
  6
CONTINUOUS
 62
     3
 10
3829.514701
 20
2684.168262
 11
3946.741863
 21
2684.168262
  0
LINE
  8
CSLAYER3
  6
CONTINUOUS
 62
     3
 10
3829.514701
 20
2644.168262
 11
3946.741863
 21
2644.168262
  0
LINE
  8
CSLAYER3
  6
CONTINUOUS
 62
     3
 10
3946.741863
 20
2684.168262
 11
3932.271275
 21
2664.168262
  0
LINE
  8
CSLAYER3
  6
CONTINUOUS
 62
     3
 10
3946.741863
 20
2644.168262
 11
3932.271275
 21
2664.168262
  0
LINE
  8
CSLAYER3
  6
CONTINUOUS
 62
     3
 10
3771.229285
 20
2614.168262
 11
3737.223403
 21
2661.168262
  0
LINE
  8
CSLAYER3
  6
CONTINUOUS
 62
     3
 10
3795.915272
 20
2714.168262
 11
3761.909389
 21
2667.168262
  0
LINE
  8
CSLAYER3
  6
CONTINUOUS
 62
     3
 10
3771.229285
 20
2714.168262
 11
3737.223403
 21
2667.168262
  0
LINE
  8
CSLAYER3
  6
CONTINUOUS
 62
     3
 10
3795.915272
 20
2614.168262
 11
3761.909389
 21
2661.168262
  0
LINE
  8
CSLAYER3
  6
CONTINUOUS
 62
     3
 10
3795.915272
 20
2714.168262
 11
3771.229285
 21
2714.168262
  0
LINE
  8
CSLAYER3
  6
CONTINUOUS
 62
     3
 10
3795.915272
 20
2614.168262
 11
3771.229285
 21
2614.168262
  0
LINE
  8
CSLAYER3
  6
CONTINUOUS
 62
     3
 10
3811.229285
 20
2614.168262
 11
3777.223403
 21
2661.168262
  0
LINE
  8
CSLAYER3
  6
CONTINUOUS
 62
     3
 10
3835.915272
 20
2714.168262
 11
3801.909389
 21
2667.168262
  0
LINE
  8
CSLAYER3
  6
CONTINUOUS
 62
     3
 10
3811.229285
 20
2714.168262
 11
3777.223403
 21
2667.168262
  0
LINE
  8
CSLAYER3
  6
CONTINUOUS
 62
     3
 10
3835.915272
 20
2614.168262
 11
3801.909389
 21
2661.168262
  0
LINE
  8
CSLAYER3
  6
CONTINUOUS
 62
     3
 10
3835.915272
 20
2714.168262
 11
3811.229285
 21
2714.168262
  0
LINE
  8
CSLAYER3
  6
CONTINUOUS
 62
     3
 10
3835.915272
 20
2614.168262
 11
3811.229285
 21
2614.168262
  0
LINE
  8
CSLAYER3
  6
CONTINUOUS
 62
     3
 10
3842.244792
 20
2671.588275
 11
3850.363886
 21
2671.610208
  0
LINE
  8
CSLAYER3
  6
CONTINUOUS
 62
     3
 10
3840.862635
 20
2657.448693
 11
3845.039154
 21
2657.453917
  0
LINE
  8
CSLAYER3
  6
CONTINUOUS
 62
     3
 10
3842.244792
 20
2671.588275
 11
3842.271586
 21
2671.052411
  0
LINE
  8
CSLAYER3
  6
CONTINUOUS
 62
     3
 10
3842.271586
 20
2671.052411
 11
3842.506885
 21
2670.215791
  0
LINE
  8
CSLAYER3
  6
CONTINUOUS
 62
     3
 10
3842.506885
 20
2670.215791
 11
3842.951340
 21
2669.457603
  0
LINE
  8
CSLAYER3
  6
CONTINUOUS
 62
     3
 10
3842.951340
 20
2669.457603
 11
3843.526517
 21
2668.699415
  0
LINE
  8
CSLAYER3
  6
CONTINUOUS
 62
     3
 10
3843.526517
 20
2668.699415
 11
3844.258560
 21
2668.307249
  0
LINE
  8
CSLAYER3
  6
CONTINUOUS
 62
     3
 10
3844.258560
 20
2668.307249
 11
3846.585412
 21
2668.307249
  0
LINE
  8
CSLAYER3
  6
CONTINUOUS
 62
     3
 10
3846.585412
 20
2668.307249
 11
3846.533123
 21
2667.941228
  0
LINE
  8
CSLAYER3
  6
CONTINUOUS
 62
     3
 10
3846.533123
 20
2667.941228
 11
3845.016748
 21
2667.941228
  0
LINE
  8
CSLAYER3
  6
CONTINUOUS
 62
     3
 10
3845.016748
 20
2667.941228
 11
3840.862635
 21
2657.448693
  0
LINE
  8
CSLAYER3
  6
CONTINUOUS
 62
     3
 10
3845.005491
 20
2657.433719
 11
3845.354083
 21
2657.642875
  0
LINE
  8
CSLAYER3
  6
CONTINUOUS
 62
     3
 10
3845.354083
 20
2657.642875
 11
3845.563239
 21
2658.130903
  0
LINE
  8
CSLAYER3
  6
CONTINUOUS
 62
     3
 10
3845.563239
 20
2658.130903
 11
3845.946690
 21
2659.525272
  0
LINE
  8
CSLAYER3
  6
CONTINUOUS
 62
     3
 10
3845.946690
 20
2659.525272
 11
3847.846516
 21
2659.525272
  0
LINE
  8
CSLAYER3
  6
CONTINUOUS
 62
     3
 10
3847.846516
 20
2659.525272
 11
3847.863946
 21
2657.956607
  0
LINE
  8
CSLAYER3
  6
CONTINUOUS
 62
     3
 10
3847.863946
 20
2657.956607
 11
3848.038242
 21
2657.608015
  0
LINE
  8
CSLAYER3
  6
CONTINUOUS
 62
     3
 10
3848.038242
 20
2657.608015
 11
3848.195899
 21
2657.457866
  0
LINE
  8
CSLAYER3
  6
CONTINUOUS
 62
     3
 10
3852.134198
 20
2657.486008
 11
3850.363886
 21
2671.610208
  0
LINE
  8
CSLAYER3
  6
CONTINUOUS
 62
     3
 10
3851.447894
 20
2671.613136
 11
3851.552485
 21
2670.686753
  0
LINE
  8
CSLAYER3
  6
CONTINUOUS
 62
     3
 10
3851.552485
 20
2670.686753
 11
3851.901078
 21
2669.867562
  0
LINE
  8
CSLAYER3
  6
CONTINUOUS
 62
     3
 10
3851.901078
 20
2669.867562
 11
3852.389106
 21
2669.170378
  0
LINE
  8
CSLAYER3
  6
CONTINUOUS
 62
     3
 10
3852.389106
 20
2669.170378
 11
3852.859706
 21
2668.612630
  0
LINE
  8
CSLAYER3
  6
CONTINUOUS
 62
     3
 10
3852.859706
 20
2668.612630
 11
3853.522030
 21
2668.316327
  0
LINE
  8
CSLAYER3
  6
CONTINUOUS
 62
     3
 10
3853.522030
 20
2668.316327
 11
3855.578724
 21
2668.316327
  0
LINE
  8
CSLAYER3
  6
CONTINUOUS
 62
     3
 10
3855.578724
 20
2668.316327
 11
3855.578724
 21
2668.020024
  0
LINE
  8
CSLAYER3
  6
CONTINUOUS
 62
     3
 10
3855.578724
 20
2668.020024
 11
3853.644038
 21
2668.037453
  0
LINE
  8
CSLAYER3
  6
CONTINUOUS
 62
     3
 10
3853.644038
 20
2668.037453
 11
3852.169371
 21
2657.462836
  0
LINE
  8
CSLAYER3
  6
CONTINUOUS
 62
     3
 10
3856.098833
 20
2657.467751
 11
3856.297251
 21
2657.514049
  0
LINE
  8
CSLAYER3
  6
CONTINUOUS
 62
     3
 10
3856.297251
 20
2657.514049
 11
3856.558695
 21
2657.792923
  0
LINE
  8
CSLAYER3
  6
CONTINUOUS
 62
     3
 10
3856.558695
 20
2657.792923
 11
3857.125157
 21
2662.705165
  0
LINE
  8
CSLAYER3
  6
CONTINUOUS
 62
     3
 10
3857.125157
 20
2662.705165
 11
3857.674555
 21
2657.469722
  0
LINE
  8
CSLAYER3
  6
CONTINUOUS
 62
     3
 10
3861.941697
 20
2657.475060
 11
3862.057734
 21
2657.790018
  0
LINE
  8
CSLAYER3
  6
CONTINUOUS
 62
     3
 10
3862.057734
 20
2657.790018
 11
3860.545716
 21
2664.870793
  0
LINE
  8
CSLAYER3
  6
CONTINUOUS
 62
     3
 10
3860.545716
 20
2664.870793
 11
3864.264625
 21
2671.647759
  0
LINE
  8
CSLAYER3
  6
CONTINUOUS
 62
     3
 10
3858.392935
 20
2671.631898
 11
3857.735193
 21
2667.027707
  0
LINE
  8
CSLAYER3
  6
CONTINUOUS
 62
     3
 10
3857.735193
 20
2667.027707
 11
3859.863726
 21
2671.635871
  0
LINE
  8
CSLAYER3
  6
CONTINUOUS
 62
     3
 10
3873.505715
 20
2671.708644
 11
3873.627722
 21
2670.732586
  0
LINE
  8
CSLAYER3
  6
CONTINUOUS
 62
     3
 10
3873.627722
 20
2670.732586
 11
3873.854307
 21
2669.948254
  0
LINE
  8
CSLAYER3
  6
CONTINUOUS
 62
     3
 10
3873.854307
 20
2669.948254
 11
3874.150610
 21
2669.425366
  0
LINE
  8
CSLAYER3
  6
CONTINUOUS
 62
     3
 10
3874.150610
 20
2669.425366
 11
3874.725787
 21
2668.832760
  0
LINE
  8
CSLAYER3
  6
CONTINUOUS
 62
     3
 10
3874.725787
 20
2668.832760
 11
3875.527548
 21
2668.292442
  0
LINE
  8
CSLAYER3
  6
CONTINUOUS
 62
     3
 10
3875.527548
 20
2668.292442
 11
3880.268400
 21
2668.309872
  0
LINE
  8
CSLAYER3
  6
CONTINUOUS
 62
     3
 10
3880.268400
 20
2668.309872
 11
3880.738999
 21
2667.961280
  0
LINE
  8
CSLAYER3
  6
CONTINUOUS
 62
     3
 10
3880.738999
 20
2667.961280
 11
3880.826147
 21
2667.368673
  0
LINE
  8
CSLAYER3
  6
CONTINUOUS
 62
     3
 10
3880.826147
 20
2667.368673
 11
3880.738999
 21
2666.671489
  0
LINE
  8
CSLAYER3
  6
CONTINUOUS
 62
     3
 10
3880.738999
 20
2666.671489
 11
3880.372978
 21
2666.322897
  0
LINE
  8
CSLAYER3
  6
CONTINUOUS
 62
     3
 10
3880.372978
 20
2666.322897
 11
3879.710653
 21
2666.183460
  0
LINE
  8
CSLAYER3
  6
CONTINUOUS
 62
     3
 10
3879.710653
 20
2666.183460
 11
3879.937238
 21
2668.048428
  0
LINE
  8
CSLAYER3
  6
CONTINUOUS
 62
     3
 10
3879.937238
 20
2668.048428
 11
3875.754133
 21
2668.048428
  0
LINE
  8
CSLAYER3
  6
CONTINUOUS
 62
     3
 10
3875.754133
 20
2668.048428
 11
3874.233868
 21
2657.490436
  0
LINE
  8
CSLAYER3
  6
CONTINUOUS
 62
     3
 10
3880.422279
 20
2657.498177
 11
3881.350669
 21
2657.665287
  0
LINE
  8
CSLAYER3
  6
CONTINUOUS
 62
     3
 10
3881.350669
 20
2657.665287
 11
3882.644817
 21
2658.371186
  0
LINE
  8
CSLAYER3
  6
CONTINUOUS
 62
     3
 10
3882.644817
 20
2658.371186
 11
3883.664449
 21
2659.312384
  0
LINE
  8
CSLAYER3
  6
CONTINUOUS
 62
     3
 10
3883.664449
 20
2659.312384
 11
3884.252698
 21
2660.371233
  0
LINE
  8
CSLAYER3
  6
CONTINUOUS
 62
     3
 10
3884.252698
 20
2660.371233
 11
3884.409565
 21
2661.390864
  0
LINE
  8
CSLAYER3
  6
CONTINUOUS
 62
     3
 10
3884.409565
 20
2661.390864
 11
3884.487998
 21
2662.449713
  0
LINE
  8
CSLAYER3
  6
CONTINUOUS
 62
     3
 10
3884.487998
 20
2662.449713
 11
3883.899749
 21
2663.586994
  0
LINE
  8
CSLAYER3
  6
CONTINUOUS
 62
     3
 10
3883.899749
 20
2663.586994
 11
3882.566384
 21
2664.606626
  0
LINE
  8
CSLAYER3
  6
CONTINUOUS
 62
     3
 10
3882.566384
 20
2664.606626
 11
3883.821315
 21
2665.273308
  0
LINE
  8
CSLAYER3
  6
CONTINUOUS
 62
     3
 10
3883.821315
 20
2665.273308
 11
3884.409565
 21
2665.979207
  0
LINE
  8
CSLAYER3
  6
CONTINUOUS
 62
     3
 10
3884.409565
 20
2665.979207
 11
3884.880164
 21
2666.920406
  0
LINE
  8
CSLAYER3
  6
CONTINUOUS
 62
     3
 10
3884.880164
 20
2666.920406
 11
3884.958597
 21
2667.861604
  0
LINE
  8
CSLAYER3
  6
CONTINUOUS
 62
     3
 10
3884.958597
 20
2667.861604
 11
3884.840947
 21
2668.920452
  0
LINE
  8
CSLAYER3
  6
CONTINUOUS
 62
     3
 10
3884.840947
 20
2668.920452
 11
3884.566431
 21
2669.900868
  0
LINE
  8
CSLAYER3
  6
CONTINUOUS
 62
     3
 10
3884.566431
 20
2669.900868
 11
3883.782099
 21
2670.528333
  0
LINE
  8
CSLAYER3
  6
CONTINUOUS
 62
     3
 10
3883.782099
 20
2670.528333
 11
3882.723251
 21
2671.116582
  0
LINE
  8
CSLAYER3
  6
CONTINUOUS
 62
     3
 10
3882.723251
 20
2671.116582
 11
3881.782052
 21
2671.351882
  0
LINE
  8
CSLAYER3
  6
CONTINUOUS
 62
     3
 10
3879.206828
 20
2663.286334
 11
3878.945384
 21
2660.985626
  0
LINE
  8
CSLAYER3
  6
CONTINUOUS
 62
     3
 10
3878.945384
 20
2660.985626
 11
3879.546706
 21
2661.090204
  0
LINE
  8
CSLAYER3
  6
CONTINUOUS
 62
     3
 10
3879.546706
 20
2661.090204
 11
3880.017305
 21
2661.508514
  0
LINE
  8
CSLAYER3
  6
CONTINUOUS
 62
     3
 10
3880.017305
 20
2661.508514
 11
3880.278749
 21
2662.423568
  0
LINE
  8
CSLAYER3
  6
CONTINUOUS
 62
     3
 10
3880.278749
 20
2662.423568
 11
3879.938872
 21
2663.207900
  0
LINE
  8
CSLAYER3
  6
CONTINUOUS
 62
     3
 10
3879.938872
 20
2663.207900
 11
3879.546706
 21
2663.338622
  0
LINE
  8
CSLAYER3
  6
CONTINUOUS
 62
     3
 10
3879.546706
 20
2663.338622
 11
3879.128395
 21
2663.364767
  0
LINE
  8
CSLAYER3
  6
CONTINUOUS
 62
     3
 10
3894.482136
 20
2671.728485
 11
3894.643080
 21
2670.923767
  0
LINE
  8
CSLAYER3
  6
CONTINUOUS
 62
     3
 10
3894.643080
 20
2670.923767
 11
3894.982957
 21
2669.956424
  0
LINE
  8
CSLAYER3
  6
CONTINUOUS
 62
     3
 10
3894.982957
 20
2669.956424
 11
3895.479701
 21
2669.198237
  0
LINE
  8
CSLAYER3
  6
CONTINUOUS
 62
     3
 10
3895.479701
 20
2669.198237
 11
3896.081022
 21
2668.466193
  0
LINE
  8
CSLAYER3
  6
CONTINUOUS
 62
     3
 10
3896.081022
 20
2668.466193
 11
3896.891499
 21
2668.230894
  0
LINE
  8
CSLAYER3
  6
CONTINUOUS
 62
     3
 10
3896.891499
 20
2668.230894
 11
3901.440625
 21
2668.204749
  0
LINE
  8
CSLAYER3
  6
CONTINUOUS
 62
     3
 10
3901.440625
 20
2668.204749
 11
3901.963513
 21
2667.760295
  0
LINE
  8
CSLAYER3
  6
CONTINUOUS
 62
     3
 10
3901.963513
 20
2667.760295
 11
3902.041946
 21
2666.531508
  0
LINE
  8
CSLAYER3
  6
CONTINUOUS
 62
     3
 10
3902.041946
 20
2666.531508
 11
3901.728213
 21
2665.642598
  0
LINE
  8
CSLAYER3
  6
CONTINUOUS
 62
     3
 10
3901.728213
 20
2665.642598
 11
3901.257614
 21
2665.041277
  0
LINE
  8
CSLAYER3
  6
CONTINUOUS
 62
     3
 10
3901.257614
 20
2665.041277
 11
3900.656293
 21
2664.910555
  0
LINE
  8
CSLAYER3
  6
CONTINUOUS
 62
     3
 10
3900.656293
 20
2664.910555
 11
3901.126892
 21
2667.995594
  0
LINE
  8
CSLAYER3
  6
CONTINUOUS
 62
     3
 10
3901.126892
 20
2667.995594
 11
3896.786921
 21
2668.021739
  0
LINE
  8
CSLAYER3
  6
CONTINUOUS
 62
     3
 10
3896.786921
 20
2668.021739
 11
3895.333313
 21
2657.516410
  0
LINE
  8
CSLAYER3
  6
CONTINUOUS
 62
     3
 10
3899.557002
 20
2657.521693
 11
3899.603980
 21
2658.014968
  0
LINE
  8
CSLAYER3
  6
CONTINUOUS
 62
     3
 10
3899.603980
 20
2658.014968
 11
3900.205302
 21
2662.250362
  0
LINE
  8
CSLAYER3
  6
CONTINUOUS
 62
     3
 10
3900.205302
 20
2662.250362
 11
3901.085776
 21
2657.523606
  0
LINE
  8
CSLAYER3
  6
CONTINUOUS
 62
     3
 10
3905.664750
 20
2657.529333
 11
3903.865518
 21
2662.747105
  0
LINE
  8
CSLAYER3
  6
CONTINUOUS
 62
     3
 10
3903.865518
 20
2662.747105
 11
3904.901490
 21
2663.658891
  0
LINE
  8
CSLAYER3
  6
CONTINUOUS
 62
     3
 10
3904.901490
 20
2663.658891
 11
3905.725039
 21
2664.717740
  0
LINE
  8
CSLAYER3
  6
CONTINUOUS
 62
     3
 10
3905.725039
 20
2664.717740
 11
3906.195638
 21
2665.855021
  0
LINE
  8
CSLAYER3
  6
CONTINUOUS
 62
     3
 10
3906.195638
 20
2665.855021
 11
3906.195638
 21
2667.462902
  0
LINE
  8
CSLAYER3
  6
CONTINUOUS
 62
     3
 10
3906.195638
 20
2667.462902
 11
3905.960338
 21
2668.874700
  0
LINE
  8
CSLAYER3
  6
CONTINUOUS
 62
     3
 10
3905.960338
 20
2668.874700
 11
3905.254439
 21
2669.815898
  0
LINE
  8
CSLAYER3
  6
CONTINUOUS
 62
     3
 10
3905.254439
 20
2669.815898
 11
3904.509324
 21
2670.561014
  0
LINE
  8
CSLAYER3
  6
CONTINUOUS
 62
     3
 10
3904.509324
 20
2670.561014
 11
3903.372042
 21
2671.110046
  0
LINE
  8
CSLAYER3
  6
CONTINUOUS
 62
     3
 10
3903.372042
 20
2671.110046
 11
3902.234761
 21
2671.384562
  0
LINE
  8
CSLAYER3
  6
CONTINUOUS
 62
     3
 10
3846.837505
 20
2662.613626
 11
3847.769988
 21
2662.613626
  0
LINE
  8
CSLAYER3
  6
CONTINUOUS
 62
     3
 10
3847.769988
 20
2662.613626
 11
3847.700270
 21
2665.907821
  0
LINE
  8
CSLAYER3
  6
CONTINUOUS
 62
     3
 10
3847.700270
 20
2665.907821
 11
3846.881079
 21
2662.596196
  0
LINE
  8
CSLAYER3
  6
CONTINUOUS
 62
     3
 10
3902.234761
 20
2671.384562
 11
3900.093055
 21
2671.743642
  0
LINE
  8
CSLAYER3
  6
CONTINUOUS
 62
     3
 10
3851.447894
 20
2671.613136
 11
3858.392935
 21
2671.631898
  0
LINE
  8
CSLAYER3
  6
CONTINUOUS
 62
     3
 10
3859.863726
 20
2671.635871
 11
3864.264625
 21
2671.647759
  0
LINE
  8
CSLAYER3
  6
CONTINUOUS
 62
     3
 10
3864.127658
 20
2671.588275
 11
3872.246751
 21
2671.610208
  0
LINE
  8
CSLAYER3
  6
CONTINUOUS
 62
     3
 10
3864.127658
 20
2671.588275
 11
3864.154451
 21
2671.052411
  0
LINE
  8
CSLAYER3
  6
CONTINUOUS
 62
     3
 10
3864.154451
 20
2671.052411
 11
3864.389750
 21
2670.215791
  0
LINE
  8
CSLAYER3
  6
CONTINUOUS
 62
     3
 10
3864.389750
 20
2670.215791
 11
3864.834205
 21
2669.457603
  0
LINE
  8
CSLAYER3
  6
CONTINUOUS
 62
     3
 10
3864.834205
 20
2669.457603
 11
3865.409382
 21
2668.699415
  0
LINE
  8
CSLAYER3
  6
CONTINUOUS
 62
     3
 10
3865.409382
 20
2668.699415
 11
3866.141425
 21
2668.307249
  0
LINE
  8
CSLAYER3
  6
CONTINUOUS
 62
     3
 10
3866.141425
 20
2668.307249
 11
3868.468277
 21
2668.307249
  0
LINE
  8
CSLAYER3
  6
CONTINUOUS
 62
     3
 10
3868.468277
 20
2668.307249
 11
3868.415988
 21
2667.941228
  0
LINE
  8
CSLAYER3
  6
CONTINUOUS
 62
     3
 10
3868.415988
 20
2667.941228
 11
3866.899613
 21
2667.941228
  0
LINE
  8
CSLAYER3
  6
CONTINUOUS
 62
     3
 10
3866.899613
 20
2667.941228
 11
3862.745500
 21
2657.448693
  0
LINE
  8
CSLAYER3
  6
CONTINUOUS
 62
     3
 10
3866.888356
 20
2657.433719
 11
3867.236948
 21
2657.642875
  0
LINE
  8
CSLAYER3
  6
CONTINUOUS
 62
     3
 10
3867.236948
 20
2657.642875
 11
3867.446104
 21
2658.130903
  0
LINE
  8
CSLAYER3
  6
CONTINUOUS
 62
     3
 10
3867.446104
 20
2658.130903
 11
3867.829555
 21
2659.525272
  0
LINE
  8
CSLAYER3
  6
CONTINUOUS
 62
     3
 10
3867.829555
 20
2659.525272
 11
3869.729382
 21
2659.525272
  0
LINE
  8
CSLAYER3
  6
CONTINUOUS
 62
     3
 10
3869.729382
 20
2659.525272
 11
3869.746811
 21
2657.956607
  0
LINE
  8
CSLAYER3
  6
CONTINUOUS
 62
     3
 10
3869.746811
 20
2657.956607
 11
3869.921107
 21
2657.608015
  0
LINE
  8
CSLAYER3
  6
CONTINUOUS
 62
     3
 10
3869.921107
 20
2657.608015
 11
3870.078764
 21
2657.457866
  0
LINE
  8
CSLAYER3
  6
CONTINUOUS
 62
     3
 10
3874.017064
 20
2657.486008
 11
3872.246751
 21
2671.610208
  0
LINE
  8
CSLAYER3
  6
CONTINUOUS
 62
     3
 10
3868.720370
 20
2662.613626
 11
3869.652853
 21
2662.613626
  0
LINE
  8
CSLAYER3
  6
CONTINUOUS
 62
     3
 10
3869.652853
 20
2662.613626
 11
3869.583135
 21
2665.907821
  0
LINE
  8
CSLAYER3
  6
CONTINUOUS
 62
     3
 10
3869.583135
 20
2665.907821
 11
3868.763944
 21
2662.596196
  0
LINE
  8
CSLAYER3
  6
CONTINUOUS
 62
     3
 10
3885.205357
 20
2671.588275
 11
3893.324450
 21
2671.610208
  0
LINE
  8
CSLAYER3
  6
CONTINUOUS
 62
     3
 10
3885.205357
 20
2671.588275
 11
3885.232150
 21
2671.052411
  0
LINE
  8
CSLAYER3
  6
CONTINUOUS
 62
     3
 10
3885.232150
 20
2671.052411
 11
3885.467450
 21
2670.215791
  0
LINE
  8
CSLAYER3
  6
CONTINUOUS
 62
     3
 10
3885.467450
 20
2670.215791
 11
3885.911904
 21
2669.457603
  0
LINE
  8
CSLAYER3
  6
CONTINUOUS
 62
     3
 10
3885.911904
 20
2669.457603
 11
3886.487081
 21
2668.699415
  0
LINE
  8
CSLAYER3
  6
CONTINUOUS
 62
     3
 10
3886.487081
 20
2668.699415
 11
3887.219125
 21
2668.307249
  0
LINE
  8
CSLAYER3
  6
CONTINUOUS
 62
     3
 10
3887.219125
 20
2668.307249
 11
3889.545976
 21
2668.307249
  0
LINE
  8
CSLAYER3
  6
CONTINUOUS
 62
     3
 10
3889.545976
 20
2668.307249
 11
3889.493688
 21
2667.941228
  0
LINE
  8
CSLAYER3
  6
CONTINUOUS
 62
     3
 10
3889.493688
 20
2667.941228
 11
3887.977312
 21
2667.941228
  0
LINE
  8
CSLAYER3
  6
CONTINUOUS
 62
     3
 10
3887.977312
 20
2667.941228
 11
3883.823199
 21
2657.448693
  0
LINE
  8
CSLAYER3
  6
CONTINUOUS
 62
     3
 10
3887.966056
 20
2657.433719
 11
3888.314648
 21
2657.642875
  0
LINE
  8
CSLAYER3
  6
CONTINUOUS
 62
     3
 10
3888.314648
 20
2657.642875
 11
3888.523803
 21
2658.130903
  0
LINE
  8
CSLAYER3
  6
CONTINUOUS
 62
     3
 10
3888.523803
 20
2658.130903
 11
3888.907254
 21
2659.525272
  0
LINE
  8
CSLAYER3
  6
CONTINUOUS
 62
     3
 10
3888.907254
 20
2659.525272
 11
3890.807081
 21
2659.525272
  0
LINE
  8
CSLAYER3
  6
CONTINUOUS
 62
     3
 10
3890.807081
 20
2659.525272
 11
3890.824510
 21
2657.956607
  0
LINE
  8
CSLAYER3
  6
CONTINUOUS
 62
     3
 10
3890.824510
 20
2657.956607
 11
3890.998806
 21
2657.608015
  0
LINE
  8
CSLAYER3
  6
CONTINUOUS
 62
     3
 10
3890.998806
 20
2657.608015
 11
3891.156463
 21
2657.457866
  0
LINE
  8
CSLAYER3
  6
CONTINUOUS
 62
     3
 10
3895.094763
 20
2657.486008
 11
3893.324450
 21
2671.610208
  0
LINE
  8
CSLAYER3
  6
CONTINUOUS
 62
     3
 10
3889.798069
 20
2662.613626
 11
3890.730553
 21
2662.613626
  0
LINE
  8
CSLAYER3
  6
CONTINUOUS
 62
     3
 10
3890.730553
 20
2662.613626
 11
3890.660834
 21
2665.907821
  0
LINE
  8
CSLAYER3
  6
CONTINUOUS
 62
     3
 10
3890.660834
 20
2665.907821
 11
3889.841643
 21
2662.596196
  0
LINE
  8
CSLAYER3
  6
CONTINUOUS
 62
     3
 10
3908.172830
 20
2671.588275
 11
3916.291924
 21
2671.610208
  0
LINE
  8
CSLAYER3
  6
CONTINUOUS
 62
     3
 10
3908.172830
 20
2671.588275
 11
3908.199623
 21
2671.052411
  0
LINE
  8
CSLAYER3
  6
CONTINUOUS
 62
     3
 10
3908.199623
 20
2671.052411
 11
3908.434923
 21
2670.215791
  0
LINE
  8
CSLAYER3
  6
CONTINUOUS
 62
     3
 10
3908.434923
 20
2670.215791
 11
3908.879378
 21
2669.457603
  0
LINE
  8
CSLAYER3
  6
CONTINUOUS
 62
     3
 10
3908.879378
 20
2669.457603
 11
3909.454555
 21
2668.699415
  0
LINE
  8
CSLAYER3
  6
CONTINUOUS
 62
     3
 10
3909.454555
 20
2668.699415
 11
3910.186598
 21
2668.307249
  0
LINE
  8
CSLAYER3
  6
CONTINUOUS
 62
     3
 10
3910.186598
 20
2668.307249
 11
3912.513450
 21
2668.307249
  0
LINE
  8
CSLAYER3
  6
CONTINUOUS
 62
     3
 10
3912.513450
 20
2668.307249
 11
3912.461161
 21
2667.941228
  0
LINE
  8
CSLAYER3
  6
CONTINUOUS
 62
     3
 10
3912.461161
 20
2667.941228
 11
3910.944786
 21
2667.941228
  0
LINE
  8
CSLAYER3
  6
CONTINUOUS
 62
     3
 10
3910.944786
 20
2667.941228
 11
3906.790673
 21
2657.448693
  0
LINE
  8
CSLAYER3
  6
CONTINUOUS
 62
     3
 10
3910.933529
 20
2657.433719
 11
3911.282121
 21
2657.642875
  0
LINE
  8
CSLAYER3
  6
CONTINUOUS
 62
     3
 10
3911.282121
 20
2657.642875
 11
3911.491276
 21
2658.130903
  0
LINE
  8
CSLAYER3
  6
CONTINUOUS
 62
     3
 10
3911.491276
 20
2658.130903
 11
3911.874728
 21
2659.525272
  0
LINE
  8
CSLAYER3
  6
CONTINUOUS
 62
     3
 10
3911.874728
 20
2659.525272
 11
3913.774554
 21
2659.525272
  0
LINE
  8
CSLAYER3
  6
CONTINUOUS
 62
     3
 10
3913.774554
 20
2659.525272
 11
3913.791984
 21
2657.956607
  0
LINE
  8
CSLAYER3
  6
CONTINUOUS
 62
     3
 10
3913.791984
 20
2657.956607
 11
3913.966280
 21
2657.608015
  0
LINE
  8
CSLAYER3
  6
CONTINUOUS
 62
     3
 10
3913.966280
 20
2657.608015
 11
3914.123937
 21
2657.457866
  0
LINE
  8
CSLAYER3
  6
CONTINUOUS
 62
     3
 10
3918.062236
 20
2657.486008
 11
3916.291924
 21
2671.610208
  0
LINE
  8
CSLAYER3
  6
CONTINUOUS
 62
     3
 10
3912.765542
 20
2662.613626
 11
3913.698026
 21
2662.613626
  0
LINE
  8
CSLAYER3
  6
CONTINUOUS
 62
     3
 10
3913.698026
 20
2662.613626
 11
3913.628308
 21
2665.907821
  0
LINE
  8
CSLAYER3
  6
CONTINUOUS
 62
     3
 10
3913.628308
 20
2665.907821
 11
3912.809116
 21
2662.596196
  0
LINE
  8
CSLAYER3
  6
CONTINUOUS
 62
     3
 10
3852.169371
 20
2657.462836
 11
3856.098833
 21
2657.467751
  0
LINE
  8
CSLAYER3
  6
CONTINUOUS
 62
     3
 10
3857.674555
 20
2657.469722
 11
3861.941697
 21
2657.475060
  0
LINE
  8
CSLAYER3
  6
CONTINUOUS
 62
     3
 10
3862.745500
 20
2657.448693
 11
3866.888356
 21
2657.433719
  0
LINE
  8
CSLAYER3
  6
CONTINUOUS
 62
     3
 10
3870.078764
 20
2657.457866
 11
3874.017064
 21
2657.486008
  0
LINE
  8
CSLAYER3
  6
CONTINUOUS
 62
     3
 10
3874.233868
 20
2657.490436
 11
3880.422279
 21
2657.498177
  0
LINE
  8
CSLAYER3
  6
CONTINUOUS
 62
     3
 10
3883.823199
 20
2657.448693
 11
3887.966056
 21
2657.433719
  0
LINE
  8
CSLAYER3
  6
CONTINUOUS
 62
     3
 10
3891.156463
 20
2657.457866
 11
3895.094763
 21
2657.486008
  0
LINE
  8
CSLAYER3
  6
CONTINUOUS
 62
     3
 10
3895.429354
 20
2657.486008
 11
3899.557002
 21
2657.521693
  0
LINE
  8
CSLAYER3
  6
CONTINUOUS
 62
     3
 10
3901.085776
 20
2657.523606
 11
3905.664750
 21
2657.529333
  0
LINE
  8
CSLAYER3
  6
CONTINUOUS
 62
     3
 10
3906.790673
 20
2657.448693
 11
3910.933529
 21
2657.433719
  0
LINE
  8
CSLAYER3
  6
CONTINUOUS
 62
     3
 10
3914.123937
 20
2657.457866
 11
3918.062236
 21
2657.486008
  0
LINE
  8
CSLAYER3
  6
CONTINUOUS
 62
     3
 10
3894.482136
 20
2671.728485
 11
3900.093055
 21
2671.743642
  0
LINE
  8
CSLAYER3
  6
CONTINUOUS
 62
     3
 10
3881.782052
 20
2671.351882
 11
3873.505715
 21
2671.708644
  0
LINE
  8
CSLAYER3
  6
CONTINUOUS
 62
     3
 10
3848.195899
 20
2657.457866
 11
3852.137108
 21
2657.462796
  0
ENDBLK
  8
0
  0
BLOCK
  8
CSLAYER1
  2
BLKF0005
 70
   64
 10
0.0
 20
0.0
 30
0.0
  0
LINE
  8
CSLAYER3
  6
CONTINUOUS
 62
     3
 10
3972.806476
 20
2641.843476
 11
4079.572705
 21
2600.672185
  0
LINE
  8
CSLAYER3
  6
CONTINUOUS
 62
     3
 10
4092.588900
 20
2627.324394
 11
3972.806476
 21
2641.843476
  0
LINE
  8
CSLAYER3
  6
CONTINUOUS
 62
     3
 10
4092.588900
 20
2627.324394
 11
4079.572705
 21
2600.672185
  0
ENDBLK
  8
0
  0
BLOCK
  8
CSLAYER1
  2
BLKF0006
 70
   64
 10
0.0
 20
0.0
 30
0.0
  0
LINE
  8
CSLAYER3
  6
CONTINUOUS
 62
     3
 10
3992.865418
 20
2687.295405
 11
4104.147433
 21
2730.208078
  0
LINE
  8
CSLAYER3
  6
CONTINUOUS
 62
     3
 10
4104.147433
 20
2700.784134
 11
3992.865418
 21
2687.295405
  0
ENDBLK
  8
0
  0
BLOCK
  8
CSLAYER1
  2
BLKF0007
 70
   64
 10
0.0
 20
0.0
 30
0.0
  0
LINE
  8
CSLAYER3
  6
CONTINUOUS
 62
     3
 10
3605.744489
 20
2901.639403
 11
3605.690753
 21
2921.531182
  0
LINE
  8
CSLAYER3
  6
CONTINUOUS
 62
     3
 10
3640.386466
 20
2898.253116
 11
3640.351913
 21
2925.875576
  0
LINE
  8
CSLAYER3
  6
CONTINUOUS
 62
     3
 10
3605.744489
 20
2901.639403
 11
3607.057355
 21
2901.705046
  0
LINE
  8
CSLAYER3
  6
CONTINUOUS
 62
     3
 10
3607.057355
 20
2901.705046
 11
3609.107076
 21
2902.281530
  0
LINE
  8
CSLAYER3
  6
CONTINUOUS
 62
     3
 10
3609.107076
 20
2902.281530
 11
3610.964636
 21
2903.370444
  0
LINE
  8
CSLAYER3
  6
CONTINUOUS
 62
     3
 10
3610.964636
 20
2903.370444
 11
3612.822196
 21
2904.779628
  0
LINE
  8
CSLAYER3
  6
CONTINUOUS
 62
     3
 10
3612.822196
 20
2904.779628
 11
3613.783003
 21
2906.573134
  0
LINE
  8
CSLAYER3
  6
CONTINUOUS
 62
     3
 10
3613.783003
 20
2906.573134
 11
3613.783003
 21
2912.273921
  0
LINE
  8
CSLAYER3
  6
CONTINUOUS
 62
     3
 10
3613.783003
 20
2912.273921
 11
3614.679756
 21
2912.145813
  0
LINE
  8
CSLAYER3
  6
CONTINUOUS
 62
     3
 10
3614.679756
 20
2912.145813
 11
3614.679756
 21
2908.430694
  0
LINE
  8
CSLAYER3
  6
CONTINUOUS
 62
     3
 10
3614.679756
 20
2908.430694
 11
3640.386466
 21
2898.253116
  0
LINE
  8
CSLAYER3
  6
CONTINUOUS
 62
     3
 10
3640.423150
 20
2908.403115
 11
3639.910720
 21
2909.257165
  0
LINE
  8
CSLAYER3
  6
CONTINUOUS
 62
     3
 10
3639.910720
 20
2909.257165
 11
3638.715049
 21
2909.769596
  0
LINE
  8
CSLAYER3
  6
CONTINUOUS
 62
     3
 10
3638.715049
 20
2909.769596
 11
3635.298847
 21
2910.709051
  0
LINE
  8
CSLAYER3
  6
CONTINUOUS
 62
     3
 10
3635.298847
 20
2910.709051
 11
3635.298847
 21
2915.363626
  0
LINE
  8
CSLAYER3
  6
CONTINUOUS
 62
     3
 10
3635.298847
 20
2915.363626
 11
3639.142075
 21
2915.406329
  0
LINE
  8
CSLAYER3
  6
CONTINUOUS
 62
     3
 10
3639.142075
 20
2915.406329
 11
3639.996125
 21
2915.833354
  0
LINE
  8
CSLAYER3
  6
CONTINUOUS
 62
     3
 10
3639.996125
 20
2915.833354
 11
3640.363992
 21
2916.219614
  0
LINE
  8
CSLAYER3
  6
CONTINUOUS
 62
     3
 10
3640.295043
 20
2925.868447
 11
3605.690753
 21
2921.531182
  0
LINE
  8
CSLAYER3
  6
CONTINUOUS
 62
     3
 10
3605.683579
 20
2924.187001
 11
3607.953218
 21
2924.443251
  0
LINE
  8
CSLAYER3
  6
CONTINUOUS
 62
     3
 10
3607.953218
 20
2924.443251
 11
3609.960237
 21
2925.297301
  0
LINE
  8
CSLAYER3
  6
CONTINUOUS
 62
     3
 10
3609.960237
 20
2925.297301
 11
3611.668338
 21
2926.492972
  0
LINE
  8
CSLAYER3
  6
CONTINUOUS
 62
     3
 10
3611.668338
 20
2926.492972
 11
3613.034819
 21
2927.645940
  0
LINE
  8
CSLAYER3
  6
CONTINUOUS
 62
     3
 10
3613.034819
 20
2927.645940
 11
3613.760762
 21
2929.268636
  0
LINE
  8
CSLAYER3
  6
CONTINUOUS
 62
     3
 10
3613.760762
 20
2929.268636
 11
3613.760762
 21
2934.307534
  0
LINE
  8
CSLAYER3
  6
CONTINUOUS
 62
     3
 10
3613.760762
 20
2934.307534
 11
3614.486705
 21
2934.307534
  0
LINE
  8
CSLAYER3
  6
CONTINUOUS
 62
     3
 10
3614.486705
 20
2934.307534
 11
3614.444002
 21
2929.567554
  0
LINE
  8
CSLAYER3
  6
CONTINUOUS
 62
     3
 10
3614.444002
 20
2929.567554
 11
3640.351815
 21
2925.954621
  0
LINE
  8
CSLAYER3
  6
CONTINUOUS
 62
     3
 10
3640.339772
 20
2935.581801
 11
3640.226343
 21
2936.067926
  0
LINE
  8
CSLAYER3
  6
CONTINUOUS
 62
     3
 10
3640.226343
 20
2936.067926
 11
3639.543103
 21
2936.708463
  0
LINE
  8
CSLAYER3
  6
CONTINUOUS
 62
     3
 10
3639.543103
 20
2936.708463
 11
3627.508108
 21
2938.096296
  0
LINE
  8
CSLAYER3
  6
CONTINUOUS
 62
     3
 10
3627.508108
 20
2938.096296
 11
3640.334943
 21
2939.442321
  0
LINE
  8
CSLAYER3
  6
CONTINUOUS
 62
     3
 10
3640.321866
 20
2949.896819
 11
3639.550220
 21
2950.181110
  0
LINE
  8
CSLAYER3
  6
CONTINUOUS
 62
     3
 10
3639.550220
 20
2950.181110
 11
3622.202319
 21
2946.476666
  0
LINE
  8
CSLAYER3
  6
CONTINUOUS
 62
     3
 10
3622.202319
 20
2946.476666
 11
3605.598753
 21
2955.587992
  0
LINE
  8
CSLAYER3
  6
CONTINUOUS
 62
     3
 10
3605.637614
 20
2941.202351
 11
3616.917882
 21
2939.590884
  0
LINE
  8
CSLAYER3
  6
CONTINUOUS
 62
     3
 10
3616.917882
 20
2939.590884
 11
3605.627880
 21
2944.805790
  0
LINE
  8
CSLAYER3
  6
CONTINUOUS
 62
     3
 10
3605.449585
 20
2978.228662
 11
3607.840927
 21
2978.527580
  0
LINE
  8
CSLAYER3
  6
CONTINUOUS
 62
     3
 10
3607.840927
 20
2978.527580
 11
3609.762540
 21
2979.082712
  0
LINE
  8
CSLAYER3
  6
CONTINUOUS
 62
     3
 10
3609.762540
 20
2979.082712
 11
3611.043616
 21
2979.808655
  0
LINE
  8
CSLAYER3
  6
CONTINUOUS
 62
     3
 10
3611.043616
 20
2979.808655
 11
3612.495502
 21
2981.217839
  0
LINE
  8
CSLAYER3
  6
CONTINUOUS
 62
     3
 10
3612.495502
 20
2981.217839
 11
3613.819280
 21
2983.182155
  0
LINE
  8
CSLAYER3
  6
CONTINUOUS
 62
     3
 10
3613.819280
 20
2983.182155
 11
3613.776577
 21
2994.797241
  0
LINE
  8
CSLAYER3
  6
CONTINUOUS
 62
     3
 10
3613.776577
 20
2994.797241
 11
3614.630628
 21
2995.950210
  0
LINE
  8
CSLAYER3
  6
CONTINUOUS
 62
     3
 10
3614.630628
 20
2995.950210
 11
3616.082514
 21
2996.163722
  0
LINE
  8
CSLAYER3
  6
CONTINUOUS
 62
     3
 10
3616.082514
 20
2996.163722
 11
3617.790615
 21
2995.950210
  0
LINE
  8
CSLAYER3
  6
CONTINUOUS
 62
     3
 10
3617.790615
 20
2995.950210
 11
3618.644665
 21
2995.053456
  0
LINE
  8
CSLAYER3
  6
CONTINUOUS
 62
     3
 10
3618.644665
 20
2995.053456
 11
3618.986285
 21
2993.430761
  0
LINE
  8
CSLAYER3
  6
CONTINUOUS
 62
     3
 10
3618.986285
 20
2993.430761
 11
3614.417115
 21
2993.985893
  0
LINE
  8
CSLAYER3
  6
CONTINUOUS
 62
     3
 10
3614.417115
 20
2993.985893
 11
3614.417115
 21
2983.737288
  0
LINE
  8
CSLAYER3
  6
CONTINUOUS
 62
     3
 10
3614.417115
 20
2983.737288
 11
3640.284195
 21
2980.012638
  0
LINE
  8
CSLAYER3
  6
CONTINUOUS
 62
     3
 10
3640.265230
 20
2995.174245
 11
3639.855810
 21
2997.448801
  0
LINE
  8
CSLAYER3
  6
CONTINUOUS
 62
     3
 10
3639.855810
 20
2997.448801
 11
3638.126358
 21
3000.619464
  0
LINE
  8
CSLAYER3
  6
CONTINUOUS
 62
     3
 10
3638.126358
 20
3000.619464
 11
3635.820421
 21
3003.117561
  0
LINE
  8
CSLAYER3
  6
CONTINUOUS
 62
     3
 10
3635.820421
 20
3003.117561
 11
3633.226243
 21
3004.558772
  0
LINE
  8
CSLAYER3
  6
CONTINUOUS
 62
     3
 10
3633.226243
 20
3004.558772
 11
3630.728145
 21
3004.943094
  0
LINE
  8
CSLAYER3
  6
CONTINUOUS
 62
     3
 10
3630.728145
 20
3004.943094
 11
3628.133967
 21
3005.135256
  0
LINE
  8
CSLAYER3
  6
CONTINUOUS
 62
     3
 10
3628.133967
 20
3005.135256
 11
3625.347627
 21
3003.694045
  0
LINE
  8
CSLAYER3
  6
CONTINUOUS
 62
     3
 10
3625.347627
 20
3003.694045
 11
3622.849529
 21
3000.427302
  0
LINE
  8
CSLAYER3
  6
CONTINUOUS
 62
     3
 10
3622.849529
 20
3000.427302
 11
3621.216158
 21
3003.501884
  0
LINE
  8
CSLAYER3
  6
CONTINUOUS
 62
     3
 10
3621.216158
 20
3003.501884
 11
3619.486706
 21
3004.943094
  0
LINE
  8
CSLAYER3
  6
CONTINUOUS
 62
     3
 10
3619.486706
 20
3004.943094
 11
3617.180769
 21
3006.096062
  0
LINE
  8
CSLAYER3
  6
CONTINUOUS
 62
     3
 10
3617.180769
 20
3006.096062
 11
3614.874833
 21
3006.288224
  0
LINE
  8
CSLAYER3
  6
CONTINUOUS
 62
     3
 10
3614.874833
 20
3006.288224
 11
3612.280655
 21
3005.999982
  0
LINE
  8
CSLAYER3
  6
CONTINUOUS
 62
     3
 10
3612.280655
 20
3005.999982
 11
3609.878638
 21
3005.327417
  0
LINE
  8
CSLAYER3
  6
CONTINUOUS
 62
     3
 10
3609.878638
 20
3005.327417
 11
3608.341347
 21
3003.405803
  0
LINE
  8
CSLAYER3
  6
CONTINUOUS
 62
     3
 10
3608.341347
 20
3003.405803
 11
3606.900137
 21
3000.811625
  0
LINE
  8
CSLAYER3
  6
CONTINUOUS
 62
     3
 10
3606.900137
 20
3000.811625
 11
3606.323652
 21
2998.505689
  0
LINE
  8
CSLAYER3
  6
CONTINUOUS
 62
     3
 10
3626.084246
 20
2992.196391
 11
3631.720979
 21
2991.555853
  0
LINE
  8
CSLAYER3
  6
CONTINUOUS
 62
     3
 10
3631.720979
 20
2991.555853
 11
3631.464764
 21
2993.029090
  0
LINE
  8
CSLAYER3
  6
CONTINUOUS
 62
     3
 10
3631.464764
 20
2993.029090
 11
3630.439903
 21
2994.182058
  0
LINE
  8
CSLAYER3
  6
CONTINUOUS
 62
     3
 10
3630.439903
 20
2994.182058
 11
3628.198021
 21
2994.822596
  0
LINE
  8
CSLAYER3
  6
CONTINUOUS
 62
     3
 10
3628.198021
 20
2994.822596
 11
3626.276407
 21
2993.989897
  0
LINE
  8
CSLAYER3
  6
CONTINUOUS
 62
     3
 10
3626.276407
 20
2993.989897
 11
3625.956138
 21
2993.029090
  0
LINE
  8
CSLAYER3
  6
CONTINUOUS
 62
     3
 10
3625.956138
 20
2993.029090
 11
3625.892084
 21
2992.004229
  0
LINE
  8
CSLAYER3
  6
CONTINUOUS
 62
     3
 10
3605.400976
 20
3028.801148
 11
3607.372533
 21
3029.195459
  0
LINE
  8
CSLAYER3
  6
CONTINUOUS
 62
     3
 10
3607.372533
 20
3029.195459
 11
3609.742523
 21
3030.028159
  0
LINE
  8
CSLAYER3
  6
CONTINUOUS
 62
     3
 10
3609.742523
 20
3030.028159
 11
3611.600083
 21
3031.245180
  0
LINE
  8
CSLAYER3
  6
CONTINUOUS
 62
     3
 10
3611.600083
 20
3031.245180
 11
3613.393589
 21
3032.718418
  0
LINE
  8
CSLAYER3
  6
CONTINUOUS
 62
     3
 10
3613.393589
 20
3032.718418
 11
3613.970073
 21
3034.704085
  0
LINE
  8
CSLAYER3
  6
CONTINUOUS
 62
     3
 10
3613.970073
 20
3034.704085
 11
3614.034127
 21
3045.849444
  0
LINE
  8
CSLAYER3
  6
CONTINUOUS
 62
     3
 10
3614.034127
 20
3045.849444
 11
3615.123041
 21
3047.130520
  0
LINE
  8
CSLAYER3
  6
CONTINUOUS
 62
     3
 10
3615.123041
 20
3047.130520
 11
3618.133569
 21
3047.322681
  0
LINE
  8
CSLAYER3
  6
CONTINUOUS
 62
     3
 10
3618.133569
 20
3047.322681
 11
3620.311398
 21
3046.554036
  0
LINE
  8
CSLAYER3
  6
CONTINUOUS
 62
     3
 10
3620.311398
 20
3046.554036
 11
3621.784635
 21
3045.401067
  0
LINE
  8
CSLAYER3
  6
CONTINUOUS
 62
     3
 10
3621.784635
 20
3045.401067
 11
3622.104904
 21
3043.927830
  0
LINE
  8
CSLAYER3
  6
CONTINUOUS
 62
     3
 10
3622.104904
 20
3043.927830
 11
3614.546557
 21
3045.080798
  0
LINE
  8
CSLAYER3
  6
CONTINUOUS
 62
     3
 10
3614.546557
 20
3045.080798
 11
3614.482504
 21
3034.447870
  0
LINE
  8
CSLAYER3
  6
CONTINUOUS
 62
     3
 10
3614.482504
 20
3034.447870
 11
3640.220559
 21
3030.886532
  0
LINE
  8
CSLAYER3
  6
CONTINUOUS
 62
     3
 10
3640.207615
 20
3041.234568
 11
3638.999090
 21
3041.349665
  0
LINE
  8
CSLAYER3
  6
CONTINUOUS
 62
     3
 10
3638.999090
 20
3041.349665
 11
3628.622377
 21
3042.822902
  0
LINE
  8
CSLAYER3
  6
CONTINUOUS
 62
     3
 10
3628.622377
 20
3042.822902
 11
3640.202929
 21
3044.980064
  0
LINE
  8
CSLAYER3
  6
CONTINUOUS
 62
     3
 10
3640.188897
 20
3056.198550
 11
3627.405355
 21
3051.790433
  0
LINE
  8
CSLAYER3
  6
CONTINUOUS
 62
     3
 10
3627.405355
 20
3051.790433
 11
3625.171479
 21
3054.328564
  0
LINE
  8
CSLAYER3
  6
CONTINUOUS
 62
     3
 10
3625.171479
 20
3054.328564
 11
3622.577301
 21
3056.346258
  0
LINE
  8
CSLAYER3
  6
CONTINUOUS
 62
     3
 10
3622.577301
 20
3056.346258
 11
3619.790961
 21
3057.499226
  0
LINE
  8
CSLAYER3
  6
CONTINUOUS
 62
     3
 10
3619.790961
 20
3057.499226
 11
3615.851653
 21
3057.499226
  0
LINE
  8
CSLAYER3
  6
CONTINUOUS
 62
     3
 10
3615.851653
 20
3057.499226
 11
3612.392749
 21
3056.922742
  0
LINE
  8
CSLAYER3
  6
CONTINUOUS
 62
     3
 10
3612.392749
 20
3056.922742
 11
3610.086812
 21
3055.193290
  0
LINE
  8
CSLAYER3
  6
CONTINUOUS
 62
     3
 10
3610.086812
 20
3055.193290
 11
3608.261279
 21
3053.367757
  0
LINE
  8
CSLAYER3
  6
CONTINUOUS
 62
     3
 10
3608.261279
 20
3053.367757
 11
3606.916150
 21
3050.581417
  0
LINE
  8
CSLAYER3
  6
CONTINUOUS
 62
     3
 10
3606.916150
 20
3050.581417
 11
3606.243585
 21
3047.795078
  0
LINE
  8
CSLAYER3
  6
CONTINUOUS
 62
     3
 10
3627.732380
 20
2912.891547
 11
3627.732380
 21
2915.176133
  0
LINE
  8
CSLAYER3
  6
CONTINUOUS
 62
     3
 10
3627.732380
 20
2915.176133
 11
3619.661602
 21
2915.005322
  0
LINE
  8
CSLAYER3
  6
CONTINUOUS
 62
     3
 10
3619.661602
 20
2915.005322
 11
3627.775082
 21
2912.998304
  0
LINE
  8
CSLAYER3
  6
CONTINUOUS
 62
     3
 10
3606.243585
 20
3047.795078
 11
3605.363840
 21
3042.547899
  0
LINE
  8
CSLAYER3
  6
CONTINUOUS
 62
     3
 10
3605.683579
 20
2924.187001
 11
3605.637614
 21
2941.202351
  0
LINE
  8
CSLAYER3
  6
CONTINUOUS
 62
     3
 10
3605.627880
 20
2944.805790
 11
3605.598753
 21
2955.587992
  0
LINE
  8
CSLAYER3
  6
CONTINUOUS
 62
     3
 10
3605.744489
 20
2955.252422
 11
3605.690753
 21
2975.144201
  0
LINE
  8
CSLAYER3
  6
CONTINUOUS
 62
     3
 10
3605.744489
 20
2955.252422
 11
3607.057355
 21
2955.318065
  0
LINE
  8
CSLAYER3
  6
CONTINUOUS
 62
     3
 10
3607.057355
 20
2955.318065
 11
3609.107076
 21
2955.894550
  0
LINE
  8
CSLAYER3
  6
CONTINUOUS
 62
     3
 10
3609.107076
 20
2955.894550
 11
3610.964636
 21
2956.983464
  0
LINE
  8
CSLAYER3
  6
CONTINUOUS
 62
     3
 10
3610.964636
 20
2956.983464
 11
3612.822196
 21
2958.392647
  0
LINE
  8
CSLAYER3
  6
CONTINUOUS
 62
     3
 10
3612.822196
 20
2958.392647
 11
3613.783003
 21
2960.186153
  0
LINE
  8
CSLAYER3
  6
CONTINUOUS
 62
     3
 10
3613.783003
 20
2960.186153
 11
3613.783003
 21
2965.886940
  0
LINE
  8
CSLAYER3
  6
CONTINUOUS
 62
     3
 10
3613.783003
 20
2965.886940
 11
3614.679756
 21
2965.758833
  0
LINE
  8
CSLAYER3
  6
CONTINUOUS
 62
     3
 10
3614.679756
 20
2965.758833
 11
3614.679756
 21
2962.043713
  0
LINE
  8
CSLAYER3
  6
CONTINUOUS
 62
     3
 10
3614.679756
 20
2962.043713
 11
3640.386466
 21
2951.866136
  0
LINE
  8
CSLAYER3
  6
CONTINUOUS
 62
     3
 10
3640.423150
 20
2962.016134
 11
3639.910720
 21
2962.870185
  0
LINE
  8
CSLAYER3
  6
CONTINUOUS
 62
     3
 10
3639.910720
 20
2962.870185
 11
3638.715049
 21
2963.382615
  0
LINE
  8
CSLAYER3
  6
CONTINUOUS
 62
     3
 10
3638.715049
 20
2963.382615
 11
3635.298847
 21
2964.322071
  0
LINE
  8
CSLAYER3
  6
CONTINUOUS
 62
     3
 10
3635.298847
 20
2964.322071
 11
3635.298847
 21
2968.976646
  0
LINE
  8
CSLAYER3
  6
CONTINUOUS
 62
     3
 10
3635.298847
 20
2968.976646
 11
3639.142075
 21
2969.019348
  0
LINE
  8
CSLAYER3
  6
CONTINUOUS
 62
     3
 10
3639.142075
 20
2969.019348
 11
3639.996125
 21
2969.446374
  0
LINE
  8
CSLAYER3
  6
CONTINUOUS
 62
     3
 10
3639.996125
 20
2969.446374
 11
3640.363992
 21
2969.832634
  0
LINE
  8
CSLAYER3
  6
CONTINUOUS
 62
     3
 10
3640.295043
 20
2979.481467
 11
3605.690753
 21
2975.144201
  0
LINE
  8
CSLAYER3
  6
CONTINUOUS
 62
     3
 10
3627.732380
 20
2966.504567
 11
3627.732380
 21
2968.789152
  0
LINE
  8
CSLAYER3
  6
CONTINUOUS
 62
     3
 10
3627.732380
 20
2968.789152
 11
3619.661602
 21
2968.618342
  0
LINE
  8
CSLAYER3
  6
CONTINUOUS
 62
     3
 10
3619.661602
 20
2968.618342
 11
3627.775082
 21
2966.611323
  0
LINE
  8
CSLAYER3
  6
CONTINUOUS
 62
     3
 10
3605.744489
 20
3006.892785
 11
3605.690753
 21
3026.784564
  0
LINE
  8
CSLAYER3
  6
CONTINUOUS
 62
     3
 10
3605.744489
 20
3006.892785
 11
3607.057355
 21
3006.958429
  0
LINE
  8
CSLAYER3
  6
CONTINUOUS
 62
     3
 10
3607.057355
 20
3006.958429
 11
3609.107076
 21
3007.534913
  0
LINE
  8
CSLAYER3
  6
CONTINUOUS
 62
     3
 10
3609.107076
 20
3007.534913
 11
3610.964636
 21
3008.623827
  0
LINE
  8
CSLAYER3
  6
CONTINUOUS
 62
     3
 10
3610.964636
 20
3008.623827
 11
3612.822196
 21
3010.033010
  0
LINE
  8
CSLAYER3
  6
CONTINUOUS
 62
     3
 10
3612.822196
 20
3010.033010
 11
3613.783003
 21
3011.826516
  0
LINE
  8
CSLAYER3
  6
CONTINUOUS
 62
     3
 10
3613.783003
 20
3011.826516
 11
3613.783003
 21
3017.527303
  0
LINE
  8
CSLAYER3
  6
CONTINUOUS
 62
     3
 10
3613.783003
 20
3017.527303
 11
3614.679756
 21
3017.399196
  0
LINE
  8
CSLAYER3
  6
CONTINUOUS
 62
     3
 10
3614.679756
 20
3017.399196
 11
3614.679756
 21
3013.684076
  0
LINE
  8
CSLAYER3
  6
CONTINUOUS
 62
     3
 10
3614.679756
 20
3013.684076
 11
3640.386466
 21
3003.506499
  0
LINE
  8
CSLAYER3
  6
CONTINUOUS
 62
     3
 10
3640.423150
 20
3013.656497
 11
3639.910720
 21
3014.510548
  0
LINE
  8
CSLAYER3
  6
CONTINUOUS
 62
     3
 10
3639.910720
 20
3014.510548
 11
3638.715049
 21
3015.022978
  0
LINE
  8
CSLAYER3
  6
CONTINUOUS
 62
     3
 10
3638.715049
 20
3015.022978
 11
3635.298847
 21
3015.962434
  0
LINE
  8
CSLAYER3
  6
CONTINUOUS
 62
     3
 10
3635.298847
 20
3015.962434
 11
3635.298847
 21
3020.617009
  0
LINE
  8
CSLAYER3
  6
CONTINUOUS
 62
     3
 10
3635.298847
 20
3020.617009
 11
3639.142075
 21
3020.659711
  0
LINE
  8
CSLAYER3
  6
CONTINUOUS
 62
     3
 10
3639.142075
 20
3020.659711
 11
3639.996125
 21
3021.086737
  0
LINE
  8
CSLAYER3
  6
CONTINUOUS
 62
     3
 10
3639.996125
 20
3021.086737
 11
3640.363992
 21
3021.472997
  0
LINE
  8
CSLAYER3
  6
CONTINUOUS
 62
     3
 10
3640.295043
 20
3031.121830
 11
3605.690753
 21
3026.784564
  0
LINE
  8
CSLAYER3
  6
CONTINUOUS
 62
     3
 10
3627.732380
 20
3018.144930
 11
3627.732380
 21
3020.429515
  0
LINE
  8
CSLAYER3
  6
CONTINUOUS
 62
     3
 10
3627.732380
 20
3020.429515
 11
3619.661602
 21
3020.258705
  0
LINE
  8
CSLAYER3
  6
CONTINUOUS
 62
     3
 10
3619.661602
 20
3020.258705
 11
3627.775082
 21
3018.251686
  0
LINE
  8
CSLAYER3
  6
CONTINUOUS
 62
     3
 10
3605.744489
 20
3062.343348
 11
3605.690753
 21
3082.235127
  0
LINE
  8
CSLAYER3
  6
CONTINUOUS
 62
     3
 10
3605.744489
 20
3062.343348
 11
3607.057355
 21
3062.408991
  0
LINE
  8
CSLAYER3
  6
CONTINUOUS
 62
     3
 10
3607.057355
 20
3062.408991
 11
3609.107076
 21
3062.985475
  0
LINE
  8
CSLAYER3
  6
CONTINUOUS
 62
     3
 10
3609.107076
 20
3062.985475
 11
3610.964636
 21
3064.074390
  0
LINE
  8
CSLAYER3
  6
CONTINUOUS
 62
     3
 10
3610.964636
 20
3064.074390
 11
3612.822196
 21
3065.483573
  0
LINE
  8
CSLAYER3
  6
CONTINUOUS
 62
     3
 10
3612.822196
 20
3065.483573
 11
3613.783003
 21
3067.277079
  0
LINE
  8
CSLAYER3
  6
CONTINUOUS
 62
     3
 10
3613.783003
 20
3067.277079
 11
3613.783003
 21
3072.977866
  0
LINE
  8
CSLAYER3
  6
CONTINUOUS
 62
     3
 10
3613.783003
 20
3072.977866
 11
3614.679756
 21
3072.849758
  0
LINE
  8
CSLAYER3
  6
CONTINUOUS
 62
     3
 10
3614.679756
 20
3072.849758
 11
3614.679756
 21
3069.134639
  0
LINE
  8
CSLAYER3
  6
CONTINUOUS
 62
     3
 10
3614.679756
 20
3069.134639
 11
3640.386466
 21
3058.957061
  0
LINE
  8
CSLAYER3
  6
CONTINUOUS
 62
     3
 10
3640.423150
 20
3069.107060
 11
3639.910720
 21
3069.961110
  0
LINE
  8
CSLAYER3
  6
CONTINUOUS
 62
     3
 10
3639.910720
 20
3069.961110
 11
3638.715049
 21
3070.473541
  0
LINE
  8
CSLAYER3
  6
CONTINUOUS
 62
     3
 10
3638.715049
 20
3070.473541
 11
3635.298847
 21
3071.412996
  0
LINE
  8
CSLAYER3
  6
CONTINUOUS
 62
     3
 10
3635.298847
 20
3071.412996
 11
3635.298847
 21
3076.067571
  0
LINE
  8
CSLAYER3
  6
CONTINUOUS
 62
     3
 10
3635.298847
 20
3076.067571
 11
3639.142075
 21
3076.110274
  0
LINE
  8
CSLAYER3
  6
CONTINUOUS
 62
     3
 10
3639.142075
 20
3076.110274
 11
3639.996125
 21
3076.537299
  0
LINE
  8
CSLAYER3
  6
CONTINUOUS
 62
     3
 10
3639.996125
 20
3076.537299
 11
3640.363992
 21
3076.923559
  0
LINE
  8
CSLAYER3
  6
CONTINUOUS
 62
     3
 10
3640.295043
 20
3086.572393
 11
3605.690753
 21
3082.235127
  0
LINE
  8
CSLAYER3
  6
CONTINUOUS
 62
     3
 10
3627.732380
 20
3073.595493
 11
3627.732380
 21
3075.880078
  0
LINE
  8
CSLAYER3
  6
CONTINUOUS
 62
     3
 10
3627.732380
 20
3075.880078
 11
3619.661602
 21
3075.709268
  0
LINE
  8
CSLAYER3
  6
CONTINUOUS
 62
     3
 10
3619.661602
 20
3075.709268
 11
3627.775082
 21
3073.702249
  0
LINE
  8
CSLAYER3
  6
CONTINUOUS
 62
     3
 10
3640.351815
 20
2925.954621
 11
3640.339772
 21
2935.581801
  0
LINE
  8
CSLAYER3
  6
CONTINUOUS
 62
     3
 10
3640.334943
 20
2939.442321
 11
3640.321866
 21
2949.896819
  0
LINE
  8
CSLAYER3
  6
CONTINUOUS
 62
     3
 10
3640.386466
 20
2951.866136
 11
3640.423150
 21
2962.016134
  0
LINE
  8
CSLAYER3
  6
CONTINUOUS
 62
     3
 10
3640.363992
 20
2969.832634
 11
3640.295043
 21
2979.481467
  0
LINE
  8
CSLAYER3
  6
CONTINUOUS
 62
     3
 10
3640.284195
 20
2980.012638
 11
3640.265230
 21
2995.174245
  0
LINE
  8
CSLAYER3
  6
CONTINUOUS
 62
     3
 10
3640.386466
 20
3003.506499
 11
3640.423150
 21
3013.656497
  0
LINE
  8
CSLAYER3
  6
CONTINUOUS
 62
     3
 10
3640.363992
 20
3021.472997
 11
3640.295043
 21
3031.121830
  0
LINE
  8
CSLAYER3
  6
CONTINUOUS
 62
     3
 10
3640.295043
 20
3031.121830
 11
3640.207615
 21
3041.234568
  0
LINE
  8
CSLAYER3
  6
CONTINUOUS
 62
     3
 10
3640.202929
 20
3044.980064
 11
3640.188897
 21
3056.198550
  0
LINE
  8
CSLAYER3
  6
CONTINUOUS
 62
     3
 10
3640.386466
 20
3058.957061
 11
3640.423150
 21
3069.107060
  0
LINE
  8
CSLAYER3
  6
CONTINUOUS
 62
     3
 10
3640.363992
 20
3076.923559
 11
3640.295043
 21
3086.572393
  0
LINE
  8
CSLAYER3
  6
CONTINUOUS
 62
     3
 10
3605.400976
 20
3028.801148
 11
3605.363840
 21
3042.547899
  0
LINE
  8
CSLAYER3
  6
CONTINUOUS
 62
     3
 10
3606.323652
 20
2998.505689
 11
3605.449585
 21
2978.228662
  0
ENDBLK
  8
0
  0
BLOCK
  8
CSLAYER1
  2
BLKF0008
 70
   64
 10
0.0
 20
0.0
 30
0.0
  0
LINE
  8
CSLAYER3
  6
CONTINUOUS
 62
     3
 10
3627.847319
 20
3230.911119
 11
3627.847319
 21
3183.139690
  0
CIRCLE
  8
CSLAYER3
  6
CONTINUOUS
 62
     3
 10
3627.847319
 20
3207.025405
 40
10.000000
  0
LINE
  8
CSLAYER3
  6
CONTINUOUS
 62
     3
 10
3617.856043
 20
3206.607799
 11
3627.847319
 21
3206.607799
  0
LINE
  8
CSLAYER3
  6
CONTINUOUS
 62
     3
 10
3617.849687
 20
3206.807799
 11
3627.847319
 21
3206.807799
  0
LINE
  8
CSLAYER3
  6
CONTINUOUS
 62
     3
 10
3617.847335
 20
3207.007799
 11
3627.847319
 21
3207.007799
  0
LINE
  8
CSLAYER3
  6
CONTINUOUS
 62
     3
 10
3627.847319
 20
3207.207799
 11
3637.845656
 21
3207.207799
  0
LINE
  8
CSLAYER3
  6
CONTINUOUS
 62
     3
 10
3627.847319
 20
3207.407799
 11
3637.840005
 21
3207.407799
  0
LINE
  8
CSLAYER3
  6
CONTINUOUS
 62
     3
 10
3627.847319
 20
3207.607799
 11
3637.830346
 21
3207.607799
  0
LINE
  8
CSLAYER3
  6
CONTINUOUS
 62
     3
 10
3627.847319
 20
3207.807799
 11
3637.816665
 21
3207.807799
  0
LINE
  8
CSLAYER3
  6
CONTINUOUS
 62
     3
 10
3627.847319
 20
3208.007799
 11
3637.798948
 21
3208.007799
  0
LINE
  8
CSLAYER3
  6
CONTINUOUS
 62
     3
 10
3627.847319
 20
3208.207799
 11
3637.777171
 21
3208.207799
  0
LINE
  8
CSLAYER3
  6
CONTINUOUS
 62
     3
 10
3627.847319
 20
3208.407799
 11
3637.751308
 21
3208.407799
  0
LINE
  8
CSLAYER3
  6
CONTINUOUS
 62
     3
 10
3627.847319
 20
3208.607799
 11
3637.721327
 21
3208.607799
  0
LINE
  8
CSLAYER3
  6
CONTINUOUS
 62
     3
 10
3627.847319
 20
3208.807799
 11
3637.687191
 21
3208.807799
  0
LINE
  8
CSLAYER3
  6
CONTINUOUS
 62
     3
 10
3627.847319
 20
3209.007799
 11
3637.648856
 21
3209.007799
  0
LINE
  8
CSLAYER3
  6
CONTINUOUS
 62
     3
 10
3627.847319
 20
3209.207799
 11
3637.606272
 21
3209.207799
  0
LINE
  8
CSLAYER3
  6
CONTINUOUS
 62
     3
 10
3627.847319
 20
3209.407799
 11
3637.559384
 21
3209.407799
  0
LINE
  8
CSLAYER3
  6
CONTINUOUS
 62
     3
 10
3627.847319
 20
3209.607799
 11
3637.508129
 21
3209.607799
  0
LINE
  8
CSLAYER3
  6
CONTINUOUS
 62
     3
 10
3627.847319
 20
3209.807799
 11
3637.452437
 21
3209.807799
  0
LINE
  8
CSLAYER3
  6
CONTINUOUS
 62
     3
 10
3627.847319
 20
3210.007799
 11
3637.392230
 21
3210.007799
  0
LINE
  8
CSLAYER3
  6
CONTINUOUS
 62
     3
 10
3627.847319
 20
3210.207799
 11
3637.327423
 21
3210.207799
  0
LINE
  8
CSLAYER3
  6
CONTINUOUS
 62
     3
 10
3627.847319
 20
3210.407799
 11
3637.257920
 21
3210.407799
  0
LINE
  8
CSLAYER3
  6
CONTINUOUS
 62
     3
 10
3627.847319
 20
3210.607799
 11
3637.183617
 21
3210.607799
  0
LINE
  8
CSLAYER3
  6
CONTINUOUS
 62
     3
 10
3627.847319
 20
3210.807799
 11
3637.104397
 21
3210.807799
  0
LINE
  8
CSLAYER3
  6
CONTINUOUS
 62
     3
 10
3627.847319
 20
3211.007799
 11
3637.020135
 21
3211.007799
  0
LINE
  8
CSLAYER3
  6
CONTINUOUS
 62
     3
 10
3627.847319
 20
3211.207799
 11
3636.930688
 21
3211.207799
  0
LINE
  8
CSLAYER3
  6
CONTINUOUS
 62
     3
 10
3627.847319
 20
3211.407799
 11
3636.835902
 21
3211.407799
  0
LINE
  8
CSLAYER3
  6
CONTINUOUS
 62
     3
 10
3627.847319
 20
3211.607799
 11
3636.735607
 21
3211.607799
  0
LINE
  8
CSLAYER3
  6
CONTINUOUS
 62
     3
 10
3627.847319
 20
3211.807799
 11
3636.629614
 21
3211.807799
  0
LINE
  8
CSLAYER3
  6
CONTINUOUS
 62
     3
 10
3627.847319
 20
3212.007799
 11
3636.517714
 21
3212.007799
  0
LINE
  8
CSLAYER3
  6
CONTINUOUS
 62
     3
 10
3627.847319
 20
3212.207799
 11
3636.399675
 21
3212.207799
  0
LINE
  8
CSLAYER3
  6
CONTINUOUS
 62
     3
 10
3627.847319
 20
3212.407799
 11
3636.275239
 21
3212.407799
  0
LINE
  8
CSLAYER3
  6
CONTINUOUS
 62
     3
 10
3627.847319
 20
3212.607799
 11
3636.144119
 21
3212.607799
  0
LINE
  8
CSLAYER3
  6
CONTINUOUS
 62
     3
 10
3627.847319
 20
3212.807799
 11
3636.005991
 21
3212.807799
  0
LINE
  8
CSLAYER3
  6
CONTINUOUS
 62
     3
 10
3627.847319
 20
3213.007799
 11
3635.860494
 21
3213.007799
  0
LINE
  8
CSLAYER3
  6
CONTINUOUS
 62
     3
 10
3627.847319
 20
3213.207799
 11
3635.707218
 21
3213.207799
  0
LINE
  8
CSLAYER3
  6
CONTINUOUS
 62
     3
 10
3627.847319
 20
3213.407799
 11
3635.545699
 21
3213.407799
  0
LINE
  8
CSLAYER3
  6
CONTINUOUS
 62
     3
 10
3627.847319
 20
3213.607799
 11
3635.375406
 21
3213.607799
  0
LINE
  8
CSLAYER3
  6
CONTINUOUS
 62
     3
 10
3627.847319
 20
3213.807799
 11
3635.195729
 21
3213.807799
  0
LINE
  8
CSLAYER3
  6
CONTINUOUS
 62
     3
 10
3627.847319
 20
3214.007799
 11
3635.005963
 21
3214.007799
  0
LINE
  8
CSLAYER3
  6
CONTINUOUS
 62
     3
 10
3627.847319
 20
3214.207799
 11
3634.805280
 21
3214.207799
  0
LINE
  8
CSLAYER3
  6
CONTINUOUS
 62
     3
 10
3627.847319
 20
3214.407799
 11
3634.592707
 21
3214.407799
  0
LINE
  8
CSLAYER3
  6
CONTINUOUS
 62
     3
 10
3627.847319
 20
3214.607799
 11
3634.367082
 21
3214.607799
  0
LINE
  8
CSLAYER3
  6
CONTINUOUS
 62
     3
 10
3627.847319
 20
3214.807799
 11
3634.126996
 21
3214.807799
  0
LINE
  8
CSLAYER3
  6
CONTINUOUS
 62
     3
 10
3627.847319
 20
3215.007799
 11
3633.870722
 21
3215.007799
  0
LINE
  8
CSLAYER3
  6
CONTINUOUS
 62
     3
 10
3627.847319
 20
3215.207799
 11
3633.596095
 21
3215.207799
  0
LINE
  8
CSLAYER3
  6
CONTINUOUS
 62
     3
 10
3627.847319
 20
3215.407799
 11
3633.300343
 21
3215.407799
  0
LINE
  8
CSLAYER3
  6
CONTINUOUS
 62
     3
 10
3627.847319
 20
3215.607799
 11
3632.979815
 21
3215.607799
  0
LINE
  8
CSLAYER3
  6
CONTINUOUS
 62
     3
 10
3627.847319
 20
3215.807799
 11
3632.629532
 21
3215.807799
  0
LINE
  8
CSLAYER3
  6
CONTINUOUS
 62
     3
 10
3627.847319
 20
3216.007799
 11
3632.242384
 21
3216.007799
  0
LINE
  8
CSLAYER3
  6
CONTINUOUS
 62
     3
 10
3627.847319
 20
3216.207799
 11
3631.807577
 21
3216.207799
  0
LINE
  8
CSLAYER3
  6
CONTINUOUS
 62
     3
 10
3627.847319
 20
3216.407799
 11
3631.307187
 21
3216.407799
  0
LINE
  8
CSLAYER3
  6
CONTINUOUS
 62
     3
 10
3627.847319
 20
3216.607799
 11
3630.706991
 21
3216.607799
  0
LINE
  8
CSLAYER3
  6
CONTINUOUS
 62
     3
 10
3627.847319
 20
3216.807799
 11
3629.922112
 21
3216.807799
  0
LINE
  8
CSLAYER3
  6
CONTINUOUS
 62
     3
 10
3627.847319
 20
3217.007799
 11
3628.440453
 21
3217.007799
  0
LINE
  8
CSLAYER3
  6
CONTINUOUS
 62
     3
 10
3617.866409
 20
3206.407799
 11
3627.847319
 21
3206.407799
  0
LINE
  8
CSLAYER3
  6
CONTINUOUS
 62
     3
 10
3617.880799
 20
3206.207799
 11
3627.847319
 21
3206.207799
  0
LINE
  8
CSLAYER3
  6
CONTINUOUS
 62
     3
 10
3617.899230
 20
3206.007799
 11
3627.847319
 21
3206.007799
  0
LINE
  8
CSLAYER3
  6
CONTINUOUS
 62
     3
 10
3617.921724
 20
3205.807799
 11
3627.847319
 21
3205.807799
  0
LINE
  8
CSLAYER3
  6
CONTINUOUS
 62
     3
 10
3617.948310
 20
3205.607799
 11
3627.847319
 21
3205.607799
  0
LINE
  8
CSLAYER3
  6
CONTINUOUS
 62
     3
 10
3617.979019
 20
3205.407799
 11
3627.847319
 21
3205.407799
  0
LINE
  8
CSLAYER3
  6
CONTINUOUS
 62
     3
 10
3618.013891
 20
3205.207799
 11
3627.847319
 21
3205.207799
  0
LINE
  8
CSLAYER3
  6
CONTINUOUS
 62
     3
 10
3618.052971
 20
3205.007799
 11
3627.847319
 21
3205.007799
  0
LINE
  8
CSLAYER3
  6
CONTINUOUS
 62
     3
 10
3618.096308
 20
3204.807799
 11
3627.847319
 21
3204.807799
  0
LINE
  8
CSLAYER3
  6
CONTINUOUS
 62
     3
 10
3618.143960
 20
3204.607799
 11
3627.847319
 21
3204.607799
  0
LINE
  8
CSLAYER3
  6
CONTINUOUS
 62
     3
 10
3618.195991
 20
3204.407799
 11
3627.847319
 21
3204.407799
  0
LINE
  8
CSLAYER3
  6
CONTINUOUS
 62
     3
 10
3618.252472
 20
3204.207799
 11
3627.847319
 21
3204.207799
  0
LINE
  8
CSLAYER3
  6
CONTINUOUS
 62
     3
 10
3618.313482
 20
3204.007799
 11
3627.847319
 21
3204.007799
  0
LINE
  8
CSLAYER3
  6
CONTINUOUS
 62
     3
 10
3618.379109
 20
3203.807799
 11
3627.847319
 21
3203.807799
  0
LINE
  8
CSLAYER3
  6
CONTINUOUS
 62
     3
 10
3618.449449
 20
3203.607799
 11
3627.847319
 21
3203.607799
  0
LINE
  8
CSLAYER3
  6
CONTINUOUS
 62
     3
 10
3618.524609
 20
3203.407799
 11
3627.847319
 21
3203.407799
  0
LINE
  8
CSLAYER3
  6
CONTINUOUS
 62
     3
 10
3618.604707
 20
3203.207799
 11
3627.847319
 21
3203.207799
  0
LINE
  8
CSLAYER3
  6
CONTINUOUS
 62
     3
 10
3618.689872
 20
3203.007799
 11
3627.847319
 21
3203.007799
  0
LINE
  8
CSLAYER3
  6
CONTINUOUS
 62
     3
 10
3618.780247
 20
3202.807799
 11
3627.847319
 21
3202.807799
  0
LINE
  8
CSLAYER3
  6
CONTINUOUS
 62
     3
 10
3618.875990
 20
3202.607799
 11
3627.847319
 21
3202.607799
  0
LINE
  8
CSLAYER3
  6
CONTINUOUS
 62
     3
 10
3618.977273
 20
3202.407799
 11
3627.847319
 21
3202.407799
  0
LINE
  8
CSLAYER3
  6
CONTINUOUS
 62
     3
 10
3619.084291
 20
3202.207799
 11
3627.847319
 21
3202.207799
  0
LINE
  8
CSLAYER3
  6
CONTINUOUS
 62
     3
 10
3619.197254
 20
3202.007799
 11
3627.847319
 21
3202.007799
  0
LINE
  8
CSLAYER3
  6
CONTINUOUS
 62
     3
 10
3619.316400
 20
3201.807799
 11
3627.847319
 21
3201.807799
  0
LINE
  8
CSLAYER3
  6
CONTINUOUS
 62
     3
 10
3619.441991
 20
3201.607799
 11
3627.847319
 21
3201.607799
  0
LINE
  8
CSLAYER3
  6
CONTINUOUS
 62
     3
 10
3619.574321
 20
3201.407799
 11
3627.847319
 21
3201.407799
  0
LINE
  8
CSLAYER3
  6
CONTINUOUS
 62
     3
 10
3619.713719
 20
3201.207799
 11
3627.847319
 21
3201.207799
  0
LINE
  8
CSLAYER3
  6
CONTINUOUS
 62
     3
 10
3619.860554
 20
3201.007799
 11
3627.847319
 21
3201.007799
  0
LINE
  8
CSLAYER3
  6
CONTINUOUS
 62
     3
 10
3620.015246
 20
3200.807799
 11
3627.847319
 21
3200.807799
  0
LINE
  8
CSLAYER3
  6
CONTINUOUS
 62
     3
 10
3620.178269
 20
3200.607799
 11
3627.847319
 21
3200.607799
  0
LINE
  8
CSLAYER3
  6
CONTINUOUS
 62
     3
 10
3620.350167
 20
3200.407799
 11
3627.847319
 21
3200.407799
  0
LINE
  8
CSLAYER3
  6
CONTINUOUS
 62
     3
 10
3620.531566
 20
3200.207799
 11
3627.847319
 21
3200.207799
  0
LINE
  8
CSLAYER3
  6
CONTINUOUS
 62
     3
 10
3620.723191
 20
3200.007799
 11
3627.847319
 21
3200.007799
  0
LINE
  8
CSLAYER3
  6
CONTINUOUS
 62
     3
 10
3620.925891
 20
3199.807799
 11
3627.847319
 21
3199.807799
  0
LINE
  8
CSLAYER3
  6
CONTINUOUS
 62
     3
 10
3621.140672
 20
3199.607799
 11
3627.847319
 21
3199.607799
  0
LINE
  8
CSLAYER3
  6
CONTINUOUS
 62
     3
 10
3621.368733
 20
3199.407799
 11
3627.847319
 21
3199.407799
  0
LINE
  8
CSLAYER3
  6
CONTINUOUS
 62
     3
 10
3621.611533
 20
3199.207799
 11
3627.847319
 21
3199.207799
  0
LINE
  8
CSLAYER3
  6
CONTINUOUS
 62
     3
 10
3621.870866
 20
3199.007799
 11
3627.847319
 21
3199.007799
  0
LINE
  8
CSLAYER3
  6
CONTINUOUS
 62
     3
 10
3622.148990
 20
3198.807799
 11
3627.847319
 21
3198.807799
  0
LINE
  8
CSLAYER3
  6
CONTINUOUS
 62
     3
 10
3622.448809
 20
3198.607799
 11
3627.847319
 21
3198.607799
  0
LINE
  8
CSLAYER3
  6
CONTINUOUS
 62
     3
 10
3622.774168
 20
3198.407799
 11
3627.847319
 21
3198.407799
  0
LINE
  8
CSLAYER3
  6
CONTINUOUS
 62
     3
 10
3623.130347
 20
3198.207799
 11
3627.847319
 21
3198.207799
  0
LINE
  8
CSLAYER3
  6
CONTINUOUS
 62
     3
 10
3623.524961
 20
3198.007799
 11
3627.847319
 21
3198.007799
  0
LINE
  8
CSLAYER3
  6
CONTINUOUS
 62
     3
 10
3623.969725
 20
3197.807799
 11
3627.847319
 21
3197.807799
  0
LINE
  8
CSLAYER3
  6
CONTINUOUS
 62
     3
 10
3624.484478
 20
3197.607799
 11
3627.847319
 21
3197.607799
  0
LINE
  8
CSLAYER3
  6
CONTINUOUS
 62
     3
 10
3625.108404
 20
3197.407799
 11
3627.847319
 21
3197.407799
  0
LINE
  8
CSLAYER3
  6
CONTINUOUS
 62
     3
 10
3625.946105
 20
3197.207799
 11
3627.847319
 21
3197.207799
  0
ENDBLK
  8
0
  0
BLOCK
  8
CSLAYER1
  2
BLKF0009
 70
   64
 10
0.0
 20
0.0
 30
0.0
  0
LINE
  8
CSLAYER3
  6
CONTINUOUS
 62
     3
 10
4177.006504
 20
2758.304059
 11
4151.732237
 21
2706.551989
  0
LINE
  8
CSLAYER3
  6
CONTINUOUS
 62
     3
 10
4151.732237
 20
2706.551989
 11
4104.147433
 21
2700.784134
  0
LINE
  8
CSLAYER3
  6
CONTINUOUS
 62
     3
 10
4222.966082
 20
2781.584172
 11
4104.147433
 21
2781.751037
  0
LINE
  8
CSLAYER3
  6
CONTINUOUS
 62
     3
 10
4104.147433
 20
2587.195747
 11
4239.936206
 21
2594.232660
  0
LINE
  8
CSLAYER3
  6
CONTINUOUS
 62
     3
 10
4239.936206
 20
2594.232660
 11
4222.966082
 21
2781.584172
  0
LINE
  8
CSLAYER3
  6
CONTINUOUS
 62
     3
 10
4104.147433
 20
2781.751037
 11
4104.147433
 21
2667.168262
  0
LINE
  8
CSLAYER3
  6
CONTINUOUS
 62
     3
 10
4104.147433
 20
2730.208078
 11
4177.006504
 21
2758.304059
  0
LINE
  8
CSLAYER3
  6
CONTINUOUS
 62
     3
 10
4104.147433
 20
2661.168262
 11
4104.147433
 21
2587.195747
  0
ENDBLK
  8
0
  0
ENDSEC
  0
SECTION
  2
ENTITIES
  0
TEXT
  8
CSLAYER3
 62
     3
 10
3990.265100
 20
2428.792835
 40
40.457298
 41
0.903126
  1
Akabara15
 50
0.000000
 51
0.000000
  7
FX_FONT
 72
     5
 11
4306.928259
 21
2428.792835
  0
LINE
  8
CSLAYER3
  6
CONTINUOUS
 62
     3
 10
4298.570540
 20
2593.525955
 11
3362.057026
 21
2465.010442
  0
INSERT
  8
CSLAYER1
  2
BLKF0000
 10
0.0
 20
0.0
 30
0.0
  0
LINE
  8
CSLAYER3
  6
CONTINUOUS
 62
     3
 10
3435.468526
 20
3233.911119
 11
3435.468526
 21
3180.139369
  0
LINE
  8
CSLAYER3
  6
CONTINUOUS
 62
     3
 10
3541.155421
 20
3234.180377
 11
3435.342367
 21
3233.911119
  0
LINE
  8
CSLAYER3
  6
CONTINUOUS
 62
     3
 10
4239.936206
 20
3210.282547
 11
3962.196008
 21
3210.282547
  0
LINE
  8
CSLAYER3
  6
CONTINUOUS
 62
     3
 10
4239.936206
 20
3203.768262
 11
3962.196008
 21
3203.768262
  0
LINE
  8
CSLAYER3
  6
CONTINUOUS
 62
     3
 10
3424.496555
 20
3065.882547
 11
3424.496555
 21
3348.168262
  0
LINE
  8
CSLAYER3
  6
CONTINUOUS
 62
     3
 10
3432.429458
 20
3261.311119
 11
3413.588813
 21
3261.311119
  0
LINE
  8
CSLAYER3
  6
CONTINUOUS
 62
     3
 10
3424.496555
 20
3348.168262
 11
3413.588813
 21
3261.311119
  0
LINE
  8
CSLAYER3
  6
CONTINUOUS
 62
     3
 10
3432.429458
 20
3152.739690
 11
3413.588813
 21
3152.739690
  0
LINE
  8
CSLAYER3
  6
CONTINUOUS
 62
     3
 10
3413.588813
 20
3261.311119
 11
3432.429458
 21
3152.739690
  0
LINE
  8
CSLAYER3
  6
CONTINUOUS
 62
     3
 10
3432.429458
 20
3152.739690
 11
3424.496555
 21
3065.882547
  0
LINE
  8
CSLAYER3
  6
CONTINUOUS
 62
     3
 10
3424.496555
 20
3065.882547
 11
3413.588813
 21
3152.739690
  0
LINE
  8
CSLAYER3
  6
CONTINUOUS
 62
     3
 10
3413.588813
 20
3152.739690
 11
3432.429458
 21
3261.311119
  0
LINE
  8
CSLAYER3
  6
CONTINUOUS
 62
     3
 10
3432.429458
 20
3261.311119
 11
3424.496555
 21
3348.168262
  0
LINE
  8
CSLAYER3
  6
CONTINUOUS
 62
     3
 10
3542.637181
 20
2644.908604
 11
3497.589963
 21
2509.950050
  0
LINE
  8
CSLAYER3
  6
DOT
 62
     7
 10
3466.701182
 20
3188.568262
 11
3466.701182
 21
3225.482547
  0
LINE
  8
CSLAYER3
  6
DOT
 62
     7
 10
3466.701182
 20
3188.568262
 11
3472.814327
 21
3188.568262
  0
LINE
  8
CSLAYER3
  6
DOT
 62
     7
 10
3466.701182
 20
3225.482547
 11
3472.814327
 21
3225.482547
  0
LINE
  8
CSLAYER3
  6
CONTINUOUS
 62
     3
 10
3435.406736
 20
2664.168262
 11
3547.959886
 21
2664.168262
  0
LINE
  8
CSLAYER3
  6
CONTINUOUS
 62
     3
 10
4239.936206
 20
3210.282547
 11
4239.936206
 21
3203.768262
  0
LINE
  8
CSLAYER3
  6
DOT
 62
     7
 10
3463.408722
 20
3230.470246
 11
3463.408722
 21
3183.580563
  0
LINE
  8
CSLAYER3
  6
DOT
 62
     7
 10
3541.136818
 20
3231.180435
 11
3463.408722
 21
3230.470246
  0
LINE
  8
CSLAYER3
  6
CONTINUOUS
 62
     3
 10
4104.209224
 20
3210.282547
 11
4104.209224
 21
3200.025405
  0
CIRCLE
  8
CSLAYER3
  6
CONTINUOUS
 62
     3
 10
4104.209224
 20
3196.025405
 40
1.000000
  0
ARC
  8
CSLAYER3
  6
CONTINUOUS
 62
     3
 10
4104.209224
 20
3196.025405
 40
4.000000
 50
90.000000
 51
320.352925
  0
LINE
  8
CSLAYER3
  6
CONTINUOUS
 62
     3
 10
4115.860760
 20
3203.817121
 11
4107.289181
 21
3193.473177
  0
LINE
  8
CSLAYER3
  6
CONTINUOUS
 62
     3
 10
3518.702555
 20
2579.510347
 11
3447.502657
 21
2591.236662
  0
LINE
  8
CSLAYER3
  6
CONTINUOUS
 62
     3
 10
4104.147433
 20
2781.751037
 11
4104.147433
 21
2667.168262
  0
ARC
  8
CSLAYER3
  6
CONTINUOUS
 62
     3
 10
4104.147433
 20
2727.465322
 40
54.285714
 50
90.000000
 51
112.350642
  0
LINE
  8
CSLAYER3
  6
CONTINUOUS
 62
     3
 10
4083.504000
 20
2777.672766
 11
4011.270215
 21
2739.286929
  0
LINE
  8
CSLAYER3
  6
CONTINUOUS
 62
     3
 10
4104.147433
 20
2587.195747
 11
3963.124930
 21
2600.956675
  0
ARC
  8
CSLAYER3
  6
CONTINUOUS
 62
     3
 10
3954.958272
 20
2845.253740
 40
120.000000
 50
261.835829
 51
297.986674
  0
LINE
  8
CSLAYER3
  6
CONTINUOUS
 62
     3
 10
3963.124930
 20
2600.956675
 11
3593.195074
 21
2579.510347
  0
LINE
  8
CSLAYER3
  6
CONTINUOUS
 62
     3
 10
3481.806155
 20
2730.199037
 11
3435.406736
 21
2704.834303
  0
LINE
  8
CSLAYER3
  6
CONTINUOUS
 62
     3
 10
3435.406736
 20
2704.834303
 11
3435.406736
 21
2639.952689
  0
LINE
  8
CSLAYER3
  6
CONTINUOUS
 62
     3
 10
3518.702555
 20
2579.510347
 11
3593.195074
 21
2579.510347
  0
ARC
  8
CSLAYER3
  6
CONTINUOUS
 62
     3
 10
3580.082977
 20
2594.303531
 40
86.879767
 50
88.907661
 51
107.434077
  0
ARC
  8
CSLAYER3
  6
CONTINUOUS
 62
     3
 10
3561.716593
 20
2651.787876
 40
26.535094
 50
106.786530
 51
130.089721
  0
ARC
  8
CSLAYER3
  6
CONTINUOUS
 62
     3
 10
3554.349769
 20
2663.319838
 40
13.091606
 50
137.950679
 51
171.638595
  0
ARC
  8
CSLAYER3
  6
CONTINUOUS
 62
     3
 10
3561.716593
 20
2676.548647
 40
26.535094
 50
229.910279
 51
253.213470
  0
ARC
  8
CSLAYER3
  6
CONTINUOUS
 62
     3
 10
3554.349769
 20
2665.016685
 40
13.091606
 50
188.361405
 51
222.049321
  0
ARC
  8
CSLAYER3
  6
CONTINUOUS
 62
     3
 10
3580.082977
 20
2734.032992
 40
86.879767
 50
252.565923
 51
271.092339
  0
ARC
  8
CSLAYER3
  6
CONTINUOUS
 62
     3
 10
3560.150725
 20
3465.036919
 40
818.152781
 50
271.512033
 51
273.819036
  0
LINE
  8
CSLAYER3
  6
CONTINUOUS
 62
     3
 10
3614.644127
 20
2648.700933
 11
3657.330485
 21
2653.152657
  0
LINE
  8
CSLAYER3
  6
CONTINUOUS
 62
     3
 10
3657.330485
 20
2653.152657
 11
3669.915875
 21
2655.039965
  0
LINE
  8
CSLAYER3
  6
CONTINUOUS
 62
     3
 10
3669.915875
 20
2655.039965
 11
3707.683217
 21
2661.207481
  0
LINE
  8
CSLAYER3
  6
CONTINUOUS
 62
     3
 10
3707.683217
 20
2667.129043
 11
3669.915875
 21
2673.296558
  0
LINE
  8
CSLAYER3
  6
CONTINUOUS
 62
     3
 10
3657.330485
 20
2675.183866
 11
3614.644127
 21
2679.635591
  0
LINE
  8
CSLAYER3
  6
CONTINUOUS
 62
     3
 10
3669.915875
 20
2673.296558
 11
3657.330485
 21
2675.183866
  0
ARC
  8
CSLAYER3
  6
CONTINUOUS
 62
     3
 10
3560.150725
 20
1863.299605
 40
818.152781
 50
86.180964
 51
88.487967
  0
ARC
  8
CSLAYER3
  6
CONTINUOUS
 62
     3
 10
3707.199713
 20
2664.168262
 40
3.000000
 50
-80.725302
 51
80.725302
  0
LINE
  8
CSLAYER3
  6
CONTINUOUS
 62
     3
 10
3541.397319
 20
2665.223575
 11
3541.397319
 21
2663.112949
  0
LINE
  8
CSLAYER3
  6
CONTINUOUS
 62
     3
 10
3435.406736
 20
2639.952689
 11
3447.502657
 21
2591.236662
  0
LINE
  8
CSLAYER3
  6
CONTINUOUS
 62
     3
 10
4101.998477
 20
3209.601914
 11
4091.600403
 21
3215.803804
  0
ARC
  8
CSLAYER3
  6
CONTINUOUS
 62
     3
 10
4082.358824
 20
3194.770978
 40
23.000000
 50
67.341269
 51
84.938877
  0
LINE
  8
CSLAYER3
  6
CONTINUOUS
 62
     3
 10
3988.722606
 20
3226.153775
 11
4084.387848
 21
3217.681305
  0
LINE
  8
CSLAYER3
  6
DOT
 62
     7
 10
3988.457950
 20
3223.165472
 11
4084.123193
 21
3214.693001
  0
ARC
  8
CSLAYER3
  6
CONTINUOUS
 62
     3
 10
3900.239517
 20
2227.064318
 40
1003.000000
 50
84.938877
 51
87.440084
  0
LINE
  8
CSLAYER3
  6
CONTINUOUS
 62
     3
 10
3848.033314
 20
3233.400323
 11
3945.037605
 21
3229.063386
  0
ARC
  8
CSLAYER3
  6
CONTINUOUS
 62
     3
 10
3803.235225
 20
2231.401255
 40
1003.000000
 50
87.440084
 51
90.254133
  0
LINE
  8
CSLAYER3
  6
CONTINUOUS
 62
     3
 10
3690.500702
 20
3233.911089
 11
3798.786477
 21
3234.391389
  0
LINE
  8
CSLAYER3
  6
CONTINUOUS
 62
     3
 10
3710.514008
 20
3233.911119
 11
3541.142579
 21
3233.911119
  0
LINE
  8
CSLAYER3
  6
CONTINUOUS
 62
     3
 10
4101.998477
 20
3204.448895
 11
4091.600403
 21
3198.247005
  0
ARC
  8
CSLAYER3
  6
CONTINUOUS
 62
     3
 10
4082.358824
 20
3219.279831
 40
23.000000
 50
275.061123
 51
292.658731
  0
LINE
  8
CSLAYER3
  6
CONTINUOUS
 62
     3
 10
3988.722606
 20
3187.897034
 11
4084.387848
 21
3196.369504
  0
ARC
  8
CSLAYER3
  6
CONTINUOUS
 62
     3
 10
3900.239517
 20
4186.986491
 40
1003.000000
 50
272.559916
 51
275.061123
  0
LINE
  8
CSLAYER3
  6
CONTINUOUS
 62
     3
 10
3848.033314
 20
3180.650486
 11
3945.037605
 21
3184.987423
  0
ARC
  8
CSLAYER3
  6
CONTINUOUS
 62
     3
 10
3803.235225
 20
4182.649554
 40
1003.000000
 50
269.745867
 51
272.559916
  0
LINE
  8
CSLAYER3
  6
CONTINUOUS
 62
     3
 10
3710.769490
 20
3180.049818
 11
3798.786477
 21
3179.659420
  0
LINE
  8
CSLAYER3
  6
CONTINUOUS
 62
     3
 10
4022.429836
 20
3187.339092
 11
4064.241271
 21
3191.042068
  0
LINE
  8
CSLAYER3
  6
CONTINUOUS
 62
     3
 10
4022.429836
 20
2667.168262
 11
4022.429836
 21
2661.168262
  0
LINE
  8
CSLAYER3
  6
CONTINUOUS
 62
     3
 10
4163.668070
 20
2667.168262
 11
4163.668070
 21
2661.168262
  0
LINE
  8
CSLAYER3
  6
CONTINUOUS
 62
     3
 10
4022.429836
 20
2664.168262
 11
4163.668070
 21
2664.168262
  0
LINE
  8
CSLAYER3
  6
CONTINUOUS
 62
     3
 10
4022.429836
 20
2667.168262
 11
4036.472240
 21
2667.168262
  0
LINE
  8
CSLAYER3
  6
CONTINUOUS
 62
     3
 10
4022.429836
 20
2661.168262
 11
4036.472240
 21
2661.168262
  0
LINE
  8
CSLAYER3
  6
CONTINUOUS
 62
     3
 10
4079.412699
 20
2662.668262
 11
4079.412699
 21
2665.668262
  0
LINE
  8
CSLAYER3
  6
CONTINUOUS
 62
     3
 10
4053.412699
 20
2662.668262
 11
4053.412699
 21
2665.668262
  0
LINE
  8
CSLAYER3
  6
CONTINUOUS
 62
     3
 10
4053.412699
 20
2662.668262
 11
4079.412699
 21
2662.668262
  0
LINE
  8
CSLAYER3
  6
CONTINUOUS
 62
     3
 10
4053.412699
 20
2665.668262
 11
4079.412699
 21
2665.668262
  0
LINE
  8
CSLAYER3
  6
CONTINUOUS
 62
     3
 10
4054.861727
 20
2668.668262
 11
4061.437762
 21
2668.668262
  0
LINE
  8
CSLAYER3
  6
CONTINUOUS
 62
     3
 10
4053.412699
 20
2659.668262
 11
4061.437762
 21
2659.668262
  0
ARC
  8
CSLAYER3
  6
CONTINUOUS
 62
     3
 10
4066.412699
 20
2664.168262
 40
5.000000
 50
78.521659
 51
101.478341
  0
LINE
  8
CSLAYER3
  6
CONTINUOUS
 62
     3
 10
4071.387636
 20
2668.668262
 11
4077.963672
 21
2668.668262
  0
LINE
  8
CSLAYER3
  6
CONTINUOUS
 62
     3
 10
4071.387636
 20
2659.668262
 11
4079.412699
 21
2659.668262
  0
ARC
  8
CSLAYER3
  6
CONTINUOUS
 62
     3
 10
4071.387636
 20
2688.668262
 40
20.000000
 50
258.521659
 51
270.000000
  0
ARC
  8
CSLAYER3
  6
CONTINUOUS
 62
     3
 10
4061.437762
 20
2688.668262
 40
20.000000
 50
270.000000
 51
281.478341
  0
LINE
  8
CSLAYER3
  6
CONTINUOUS
 62
     3
 10
4094.904131
 20
2667.168262
 11
4163.668070
 21
2667.168262
  0
LINE
  8
CSLAYER3
  6
CONTINUOUS
 62
     3
 10
4051.970417
 20
2668.528609
 11
4039.363549
 21
2667.307915
  0
ARC
  8
CSLAYER3
  6
CONTINUOUS
 62
     3
 10
4036.472240
 20
2697.168262
 40
30.000000
 50
270.000000
 51
275.530578
  0
ARC
  8
CSLAYER3
  6
CONTINUOUS
 62
     3
 10
4054.861727
 20
2638.668262
 40
30.000000
 50
90.000000
 51
95.530578
  0
LINE
  8
CSLAYER3
  6
CONTINUOUS
 62
     3
 10
4053.414045
 20
2665.654361
 11
4038.066170
 21
2664.168262
  0
LINE
  8
CSLAYER3
  6
CONTINUOUS
 62
     3
 10
4080.854981
 20
2668.528609
 11
4093.461849
 21
2667.307915
  0
ARC
  8
CSLAYER3
  6
CONTINUOUS
 62
     3
 10
4096.353158
 20
2697.168262
 40
30.000000
 50
264.469422
 51
270.000000
  0
ARC
  8
CSLAYER3
  6
CONTINUOUS
 62
     3
 10
4077.963672
 20
2638.668262
 40
30.000000
 50
84.469422
 51
90.000000
  0
LINE
  8
CSLAYER3
  6
CONTINUOUS
 62
     3
 10
4079.411353
 20
2665.654361
 11
4094.759228
 21
2664.168262
  0
LINE
  8
CSLAYER3
  6
CONTINUOUS
 62
     3
 10
4053.412699
 20
2662.668262
 11
4079.412699
 21
2662.668262
  0
LINE
  8
CSLAYER3
  6
CONTINUOUS
 62
     3
 10
4054.861727
 20
2659.668262
 11
4061.437762
 21
2659.668262
  0
ARC
  8
CSLAYER3
  6
CONTINUOUS
 62
     3
 10
4066.412699
 20
2664.168262
 40
5.000000
 50
258.521659
 51
281.478341
  0
LINE
  8
CSLAYER3
  6
CONTINUOUS
 62
     3
 10
4071.387636
 20
2659.668262
 11
4077.963672
 21
2659.668262
  0
ARC
  8
CSLAYER3
  6
CONTINUOUS
 62
     3
 10
4061.437762
 20
2639.668262
 40
20.000000
 50
78.521659
 51
90.000000
  0
LINE
  8
CSLAYER3
  6
CONTINUOUS
 62
     3
 10
4051.970417
 20
2659.807915
 11
4039.363549
 21
2661.028609
  0
ARC
  8
CSLAYER3
  6
CONTINUOUS
 62
     3
 10
4036.472240
 20
2631.168262
 40
30.000000
 50
84.469422
 51
90.000000
  0
LINE
  8
CSLAYER3
  6
CONTINUOUS
 62
     3
 10
4053.414045
 20
2662.682162
 11
4038.066170
 21
2664.168262
  0
LINE
  8
CSLAYER3
  6
CONTINUOUS
 62
     3
 10
4080.854981
 20
2659.807915
 11
4093.461849
 21
2661.028609
  0
ARC
  8
CSLAYER3
  6
CONTINUOUS
 62
     3
 10
4096.353158
 20
2631.168262
 40
30.000000
 50
90.000000
 51
95.530578
  0
ARC
  8
CSLAYER3
  6
CONTINUOUS
 62
     3
 10
4077.963672
 20
2689.668262
 40
30.000000
 50
270.000000
 51
275.530578
  0
LINE
  8
CSLAYER3
  6
CONTINUOUS
 62
     3
 10
4079.411353
 20
2662.682162
 11
4094.759228
 21
2664.168262
  0
LINE
  8
CSLAYER3
  6
CONTINUOUS
 62
     3
 10
4096.353158
 20
2661.168262
 11
4163.668070
 21
2661.168262
  0
LINE
  8
CSLAYER3
  6
CONTINUOUS
 62
     3
 10
3541.397319
 20
3179.882547
 11
3710.768748
 21
3179.882547
  0
LINE
  8
CSLAYER3
  6
DOT
 62
     7
 10
3595.054462
 20
2827.025405
 11
3595.054462
 21
3587.025405
  0
LINE
  8
CSLAYER3
  6
DOT
 62
     7
 10
3597.768748
 20
2827.025405
 11
3597.768748
 21
3587.025405
  0
LINE
  8
CSLAYER3
  6
CONTINUOUS
 62
     3
 10
3573.968748
 20
3587.025405
 11
3710.768748
 21
3587.025405
  0
LINE
  8
CSLAYER3
  6
CONTINUOUS
 62
     3
 10
3710.768748
 20
3587.025405
 11
3710.768748
 21
2827.025405
  0
LINE
  8
CSLAYER3
  6
CONTINUOUS
 62
     3
 10
3541.397319
 20
3554.453976
 11
3541.397319
 21
2859.596833
  0
ARC
  8
CSLAYER3
  6
CONTINUOUS
 62
     3
 10
3573.968748
 20
3554.453976
 40
32.571429
 50
90.000000
 51
180.000000
  0
LINE
  8
CSLAYER3
  6
DOT
 62
     7
 10
3544.397319
 20
3314.511119
 11
3710.768748
 21
3314.511119
  0
LINE
  8
CSLAYER3
  6
DOT
 62
     7
 10
3544.397319
 20
3394.853976
 11
3710.768748
 21
3394.853976
  0
LINE
  8
CSLAYER3
  6
DOT
 62
     7
 10
3544.397319
 20
3475.196833
 11
3710.768748
 21
3475.196833
  0
LINE
  8
CSLAYER3
  6
DOT
 62
     7
 10
3544.397319
 20
3555.539690
 11
3710.768748
 21
3555.539690
  0
LINE
  8
CSLAYER3
  6
CONTINUOUS
 62
     3
 10
3710.768748
 20
2661.168262
 11
3710.768748
 21
2667.168262
  0
LINE
  8
CSLAYER3
  6
CONTINUOUS
 62
     3
 10
3804.823374
 20
2667.168262
 11
3804.823374
 21
2661.168262
  0
LINE
  8
CSLAYER3
  6
CONTINUOUS
 62
     3
 10
3710.768748
 20
2661.168262
 11
3804.823374
 21
2661.168262
  0
LINE
  8
CSLAYER3
  6
CONTINUOUS
 62
     3
 10
3710.768748
 20
2667.168262
 11
3804.823374
 21
2667.168262
  0
LINE
  8
CSLAYER3
  6
CONTINUOUS
 62
     3
 10
3781.133928
 20
2667.168262
 11
3781.133928
 21
2661.168262
  0
CIRCLE
  8
CSLAYER3
  6
CONTINUOUS
 62
     3
 10
3497.589963
 20
2509.950050
 40
22.500000
  0
CIRCLE
  8
CSLAYER3
  6
CONTINUOUS
 62
     3
 10
3497.589963
 20
2509.950050
 40
14.500000
  0
LINE
  8
CSLAYER3
  6
DOT
 62
     7
 10
3544.397319
 20
3554.453976
 11
3544.397319
 21
2859.596833
  0
LINE
  8
CSLAYER3
  6
DOT
 62
     7
 10
3707.768748
 20
3587.025405
 11
3707.768748
 21
2827.025405
  0
ARC
  8
CSLAYER3
  6
DOT
 62
     7
 10
3573.968748
 20
3554.453976
 40
29.571429
 50
90.000000
 51
180.000000
  0
LINE
  8
CSLAYER3
  6
DOT
 62
     7
 10
3573.968748
 20
3584.025405
 11
3710.768748
 21
3584.025405
  0
LINE
  8
CSLAYER3
  6
DOT
 62
     7
 10
3573.968748
 20
3584.025405
 11
3710.768748
 21
3584.025405
  0
LINE
  8
CSLAYER3
  6
DOT
 62
     7
 10
3544.397319
 20
3552.539690
 11
3710.768748
 21
3552.539690
  0
LINE
  8
CSLAYER3
  6
DOT
 62
     7
 10
3544.397319
 20
3472.196833
 11
3710.768748
 21
3472.196833
  0
LINE
  8
CSLAYER3
  6
DOT
 62
     7
 10
3544.397319
 20
3391.853976
 11
3710.768748
 21
3391.853976
  0
LINE
  8
CSLAYER3
  6
DOT
 62
     7
 10
3544.397319
 20
3311.511119
 11
3710.768748
 21
3311.511119
  0
LINE
  8
CSLAYER3
  6
DOT
 62
     7
 10
3544.397319
 20
3233.911119
 11
3710.768748
 21
3233.911119
  0
LINE
  8
CSLAYER3
  6
DOT
 62
     7
 10
3544.397319
 20
3311.511119
 11
3710.768748
 21
3311.511119
  0
LINE
  8
CSLAYER3
  6
DOT
 62
     7
 10
3541.397319
 20
3231.168262
 11
3710.768748
 21
3231.168262
  0
LINE
  8
CSLAYER3
  6
CONTINUOUS
 62
     3
 10
3573.968748
 20
2827.025405
 11
3710.768748
 21
2827.025405
  0
ARC
  8
CSLAYER3
  6
CONTINUOUS
 62
     3
 10
3573.968748
 20
2859.596833
 40
32.571429
 50
180.000000
 51
270.000000
  0
LINE
  8
CSLAYER3
  6
DOT
 62
     7
 10
3544.397319
 20
3099.539690
 11
3710.768748
 21
3099.539690
  0
LINE
  8
CSLAYER3
  6
DOT
 62
     7
 10
3544.397319
 20
3019.196833
 11
3710.768748
 21
3019.196833
  0
LINE
  8
CSLAYER3
  6
DOT
 62
     7
 10
3544.397319
 20
2938.853976
 11
3710.768748
 21
2938.853976
  0
LINE
  8
CSLAYER3
  6
DOT
 62
     7
 10
3544.397319
 20
2858.511119
 11
3710.768748
 21
2858.511119
  0
ARC
  8
CSLAYER3
  6
DOT
 62
     7
 10
3573.968748
 20
2859.596833
 40
29.571429
 50
180.000000
 51
270.000000
  0
LINE
  8
CSLAYER3
  6
DOT
 62
     7
 10
3573.968748
 20
2830.025405
 11
3710.768748
 21
2830.025405
  0
LINE
  8
CSLAYER3
  6
DOT
 62
     7
 10
3573.968748
 20
2830.025405
 11
3710.768748
 21
2830.025405
  0
LINE
  8
CSLAYER3
  6
DOT
 62
     7
 10
3544.397319
 20
2861.511119
 11
3710.768748
 21
2861.511119
  0
LINE
  8
CSLAYER3
  6
DOT
 62
     7
 10
3544.397319
 20
2941.853976
 11
3710.768748
 21
2941.853976
  0
LINE
  8
CSLAYER3
  6
DOT
 62
     7
 10
3544.397319
 20
3022.196833
 11
3710.768748
 21
3022.196833
  0
LINE
  8
CSLAYER3
  6
DOT
 62
     7
 10
3544.397319
 20
3102.539690
 11
3710.768748
 21
3102.539690
  0
LINE
  8
CSLAYER3
  6
DOT
 62
     7
 10
3544.397319
 20
3102.539690
 11
3710.768748
 21
3102.539690
  0
LINE
  8
CSLAYER3
  6
DOT
 62
     7
 10
3463.408722
 20
2647.169014
 11
3463.408722
 21
2681.167509
  0
ARC
  8
CSLAYER3
  6
CONTINUOUS
 62
     3
 10
4054.861727
 20
2689.668262
 40
30.000000
 50
264.469422
 51
270.000000
  0
LINE
  8
CSLAYER3
  6
CONTINUOUS
 62
     3
 10
3804.823374
 20
2664.168262
 11
3710.768748
 21
2664.168262
  0
LINE
  8
CSLAYER3
  6
DOT
 62
     7
 10
3581.739232
 20
3231.168262
 11
3581.739232
 21
3182.879828
  0
LINE
  8
CSLAYER3
  6
CONTINUOUS
 62
     3
 10
3541.155421
 20
3179.870432
 11
3435.342367
 21
3180.139690
  0
LINE
  8
CSLAYER3
  6
DOT
 62
     7
 10
3581.739232
 20
3182.499397
 11
3463.408722
 21
3183.580563
  0
LINE
  8
CSLAYER3
  6
CONTINUOUS
 62
     3
 10
3419.837665
 20
2522.760516
 11
3419.837665
 21
2805.046230
  0
LINE
  8
CSLAYER3
  6
CONTINUOUS
 62
     3
 10
3427.770569
 20
2718.189087
 11
3408.929923
 21
2718.189087
  0
LINE
  8
CSLAYER3
  6
CONTINUOUS
 62
     3
 10
3419.837665
 20
2805.046230
 11
3408.929923
 21
2718.189087
  0
LINE
  8
CSLAYER3
  6
CONTINUOUS
 62
     3
 10
3427.770569
 20
2609.617659
 11
3408.929923
 21
2609.617659
  0
LINE
  8
CSLAYER3
  6
CONTINUOUS
 62
     3
 10
3408.929923
 20
2718.189087
 11
3427.770569
 21
2609.617659
  0
LINE
  8
CSLAYER3
  6
CONTINUOUS
 62
     3
 10
3427.770569
 20
2609.617659
 11
3419.837665
 21
2522.760516
  0
LINE
  8
CSLAYER3
  6
CONTINUOUS
 62
     3
 10
3419.837665
 20
2522.760516
 11
3408.929923
 21
2609.617659
  0
LINE
  8
CSLAYER3
  6
CONTINUOUS
 62
     3
 10
3408.929923
 20
2609.617659
 11
3427.770569
 21
2718.189087
  0
LINE
  8
CSLAYER3
  6
CONTINUOUS
 62
     3
 10
3427.770569
 20
2718.189087
 11
3419.837665
 21
2805.046230
  0
LINE
  8
CSLAYER3
  6
CONTINUOUS
 62
     7
 10
3443.188039
 20
2678.018262
 11
3455.795288
 21
2678.018262
  0
LINE
  8
CSLAYER3
  6
CONTINUOUS
 62
     7
 10
3437.408722
 20
2668.668262
 11
3437.408722
 21
2659.668262
  0
LINE
  8
CSLAYER3
  6
CONTINUOUS
 62
     7
 10
3463.408722
 20
2675.485381
 11
3463.408722
 21
2652.851143
  0
LINE
  8
CSLAYER3
  6
CONTINUOUS
 62
     7
 10
3443.188039
 20
2650.318262
 11
3455.795288
 21
2650.318262
  0
LINE
  8
CSLAYER3
  6
CONTINUOUS
 62
     7
 10
3425.408722
 20
2665.753262
 11
3437.408722
 21
2665.753262
  0
LINE
  8
CSLAYER3
  6
CONTINUOUS
 62
     7
 10
3425.408722
 20
2662.583262
 11
3437.408722
 21
2662.583262
  0
LINE
  8
CSLAYER3
  6
CONTINUOUS
 62
     7
 10
3425.408722
 20
2665.753262
 11
3425.408722
 21
2662.583262
  0
LINE
  8
CSLAYER3
  6
CONTINUOUS
 62
     7
 10
3455.795288
 20
2678.018262
 11
3455.795288
 21
2650.318262
  0
LINE
  8
CSLAYER3
  6
CONTINUOUS
 62
     7
 10
3455.795288
 20
2678.018262
 11
3455.795288
 21
2650.318262
  0
LINE
  8
CSLAYER3
  6
CONTINUOUS
 62
     7
 10
3455.795288
 20
2678.018262
 11
3455.795288
 21
2650.318262
  0
LINE
  8
CSLAYER3
  6
CONTINUOUS
 62
     7
 10
3455.514019
 20
2678.018262
 11
3455.514019
 21
2650.318262
  0
LINE
  8
CSLAYER3
  6
CONTINUOUS
 62
     7
 10
3443.188039
 20
2678.018262
 11
3443.188039
 21
2650.318262
  0
LINE
  8
CSLAYER3
  6
CONTINUOUS
 62
     7
 10
3443.188039
 20
2678.018262
 11
3439.408722
 21
2673.274230
  0
LINE
  8
CSLAYER3
  6
CONTINUOUS
 62
     7
 10
3439.408722
 20
2673.274230
 11
3439.408722
 21
2655.062293
  0
LINE
  8
CSLAYER3
  6
CONTINUOUS
 62
     7
 10
3439.408722
 20
2664.168262
 11
3437.408722
 21
2664.168262
  0
LINE
  8
CSLAYER3
  6
CONTINUOUS
 62
     7
 10
3439.408722
 20
2668.668262
 11
3437.408722
 21
2668.668262
  0
LINE
  8
CSLAYER3
  6
CONTINUOUS
 62
     7
 10
3443.188039
 20
2650.318262
 11
3443.188039
 21
2678.018262
  0
LINE
  8
CSLAYER3
  6
CONTINUOUS
 62
     7
 10
3443.188039
 20
2650.318262
 11
3439.408722
 21
2655.062293
  0
LINE
  8
CSLAYER3
  6
CONTINUOUS
 62
     7
 10
3439.408722
 20
2659.668262
 11
3437.408722
 21
2659.668262
  0
LINE
  8
CSLAYER3
  6
CONTINUOUS
 62
     7
 10
3455.795288
 20
2678.018262
 11
3463.408722
 21
2675.485381
  0
LINE
  8
CSLAYER3
  6
CONTINUOUS
 62
     7
 10
3455.795288
 20
2650.318262
 11
3463.408722
 21
2652.851143
  0
LINE
  8
CSLAYER3
  6
DOT
 62
     7
 10
3847.899321
 20
3230.403317
 11
3944.903613
 21
3226.066380
  0
ARC
  8
CSLAYER3
  6
DOT
 62
     7
 10
4082.358824
 20
3194.770978
 40
20.000000
 50
67.341269
 51
84.938877
  0
ARC
  8
CSLAYER3
  6
DOT
 62
     7
 10
3900.239517
 20
2227.064318
 40
1000.000000
 50
84.938877
 51
87.440084
  0
ARC
  8
CSLAYER3
  6
DOT
 62
     7
 10
3803.235225
 20
2231.401255
 40
1000.000000
 50
87.440084
 51
90.254133
  0
LINE
  8
CSLAYER3
  6
DOT
 62
     7
 10
3690.514008
 20
3230.911119
 11
3798.799783
 21
3231.391419
  0
LINE
  8
CSLAYER3
  6
DOT
 62
     7
 10
3690.514008
 20
3230.911119
 11
3690.514008
 21
3183.139690
  0
LINE
  8
CSLAYER3
  6
DOT
 62
     7
 10
3710.514008
 20
3230.911119
 11
3710.514008
 21
3183.139690
  0
LINE
  8
CSLAYER3
  6
DOT
 62
     7
 10
3847.899321
 20
3183.647492
 11
3944.903613
 21
3187.984429
  0
LINE
  8
CSLAYER3
  6
DOT
 62
     7
 10
3988.457950
 20
3190.885337
 11
4084.123193
 21
3199.357808
  0
ARC
  8
CSLAYER3
  6
DOT
 62
     7
 10
4082.358824
 20
3219.279831
 40
20.000000
 50
275.061123
 51
292.658731
  0
ARC
  8
CSLAYER3
  6
DOT
 62
     7
 10
3900.239517
 20
4186.986491
 40
1000.000000
 50
272.559916
 51
275.061123
  0
ARC
  8
CSLAYER3
  6
DOT
 62
     7
 10
3803.235225
 20
4182.649554
 40
1000.000000
 50
269.745867
 51
272.559916
  0
LINE
  8
CSLAYER3
  6
DOT
 62
     7
 10
3581.739232
 20
3183.622159
 11
3798.799783
 21
3182.659390
  0
LINE
  8
CSLAYER3
  6
DOT
 62
     7
 10
4100.461728
 20
3207.025405
 11
4090.063654
 21
3213.227294
  0
LINE
  8
CSLAYER3
  6
DOT
 62
     7
 10
4100.461728
 20
3207.025405
 11
4090.063654
 21
3200.823515
  0
INSERT
  8
CSLAYER1
  2
BLKF0001
 10
0.0
 20
0.0
 30
0.0
  0
LINE
  8
CSLAYER3
  6
CONTINUOUS
 62
     3
 10
4164.413981
 20
3132.864281
 11
4115.198495
 21
3193.376674
  0
INSERT
  8
CSLAYER1
  2
BLKF0002
 10
0.0
 20
0.0
 30
0.0
  0
LINE
  8
CSLAYER3
  6
CONTINUOUS
 62
     3
 10
4022.429836
 20
3226.711717
 11
4064.241271
 21
3223.008741
  0
LINE
  8
CSLAYER3
  6
CONTINUOUS
 62
     4
 10
3710.768748
 20
3177.453976
 11
3804.520020
 21
3175.450402
  0
LINE
  8
CSLAYER3
  6
CONTINUOUS
 62
     3
 10
3804.823374
 20
3175.443919
 11
3781.133928
 21
2832.314849
  0
LINE
  8
CSLAYER3
  6
CONTINUOUS
 62
     3
 10
3710.768748
 20
2827.025405
 11
3710.768748
 21
3174.453976
  0
LINE
  8
CSLAYER3
  6
CONTINUOUS
 62
     4
 10
3710.768748
 20
2827.025405
 11
3781.133928
 21
2832.314849
  0
LINE
  8
CSLAYER3
  6
CONTINUOUS
 62
     4
 10
3710.768748
 20
3236.596833
 11
3804.520020
 21
3238.600407
  0
LINE
  8
CSLAYER3
  6
CONTINUOUS
 62
     3
 10
3804.823374
 20
3238.606890
 11
3781.133928
 21
3581.735960
  0
LINE
  8
CSLAYER3
  6
CONTINUOUS
 62
     3
 10
3710.768748
 20
3587.025405
 11
3710.768748
 21
3239.596833
  0
LINE
  8
CSLAYER3
  6
CONTINUOUS
 62
     4
 10
3710.768748
 20
3587.025405
 11
3781.133928
 21
3581.735960
  0
LINE
  8
CSLAYER3
  6
CONTINUOUS
 62
     7
 10
3443.188039
 20
3220.875405
 11
3455.795288
 21
3220.875405
  0
LINE
  8
CSLAYER3
  6
CONTINUOUS
 62
     7
 10
3437.408722
 20
3211.525405
 11
3437.408722
 21
3202.525405
  0
LINE
  8
CSLAYER3
  6
CONTINUOUS
 62
     7
 10
3463.408722
 20
3218.342524
 11
3463.408722
 21
3195.708285
  0
LINE
  8
CSLAYER3
  6
CONTINUOUS
 62
     7
 10
3443.188039
 20
3193.175405
 11
3455.795288
 21
3193.175405
  0
LINE
  8
CSLAYER3
  6
CONTINUOUS
 62
     7
 10
3425.408722
 20
3208.610405
 11
3437.408722
 21
3208.610405
  0
LINE
  8
CSLAYER3
  6
CONTINUOUS
 62
     7
 10
3425.408722
 20
3205.440405
 11
3437.408722
 21
3205.440405
  0
LINE
  8
CSLAYER3
  6
CONTINUOUS
 62
     7
 10
3425.408722
 20
3208.610405
 11
3425.408722
 21
3205.440405
  0
LINE
  8
CSLAYER3
  6
CONTINUOUS
 62
     7
 10
3455.795288
 20
3220.875405
 11
3455.795288
 21
3193.175405
  0
LINE
  8
CSLAYER3
  6
CONTINUOUS
 62
     7
 10
3455.795288
 20
3220.875405
 11
3455.795288
 21
3193.175405
  0
LINE
  8
CSLAYER3
  6
CONTINUOUS
 62
     7
 10
3455.795288
 20
3220.875405
 11
3455.795288
 21
3193.175405
  0
LINE
  8
CSLAYER3
  6
CONTINUOUS
 62
     7
 10
3455.514019
 20
3220.875405
 11
3455.514019
 21
3193.175405
  0
LINE
  8
CSLAYER3
  6
CONTINUOUS
 62
     7
 10
3443.188039
 20
3220.875405
 11
3443.188039
 21
3193.175405
  0
LINE
  8
CSLAYER3
  6
CONTINUOUS
 62
     7
 10
3443.188039
 20
3220.875405
 11
3439.408722
 21
3216.131373
  0
LINE
  8
CSLAYER3
  6
CONTINUOUS
 62
     7
 10
3439.408722
 20
3216.131373
 11
3439.408722
 21
3197.919436
  0
LINE
  8
CSLAYER3
  6
CONTINUOUS
 62
     7
 10
3439.408722
 20
3207.025405
 11
3437.408722
 21
3207.025405
  0
LINE
  8
CSLAYER3
  6
CONTINUOUS
 62
     7
 10
3439.408722
 20
3211.525405
 11
3437.408722
 21
3211.525405
  0
LINE
  8
CSLAYER3
  6
CONTINUOUS
 62
     7
 10
3443.188039
 20
3193.175405
 11
3443.188039
 21
3220.875405
  0
LINE
  8
CSLAYER3
  6
CONTINUOUS
 62
     7
 10
3443.188039
 20
3193.175405
 11
3439.408722
 21
3197.919436
  0
LINE
  8
CSLAYER3
  6
CONTINUOUS
 62
     7
 10
3439.408722
 20
3202.525405
 11
3437.408722
 21
3202.525405
  0
LINE
  8
CSLAYER3
  6
CONTINUOUS
 62
     7
 10
3455.795288
 20
3220.875405
 11
3463.408722
 21
3218.342524
  0
LINE
  8
CSLAYER3
  6
CONTINUOUS
 62
     7
 10
3455.795288
 20
3193.175405
 11
3463.408722
 21
3195.708285
  0
ARC
  8
CSLAYER3
  6
CONTINUOUS
 62
     3
 10
4071.387636
 20
2639.668262
 40
20.000000
 50
90.000000
 51
101.478341
  0
INSERT
  8
CSLAYER1
  2
BLKF0003
 10
0.0
 20
0.0
 30
0.0
  0
INSERT
  8
CSLAYER1
  2
BLKF0004
 10
0.0
 20
0.0
 30
0.0
  0
INSERT
  8
CSLAYER1
  2
BLKF0005
 10
0.0
 20
0.0
 30
0.0
  0
INSERT
  8
CSLAYER1
  2
BLKF0006
 10
0.0
 20
0.0
 30
0.0
  0
LINE
  8
CSLAYER3
  6
CONTINUOUS
 62
     3
 10
3710.245836
 20
2752.683694
 11
3616.571203
 21
2771.749682
  0
LINE
  8
CSLAYER3
  6
CONTINUOUS
 62
     3
 10
3600.615606
 20
2773.356960
 11
3573.419497
 21
2773.356960
  0
LINE
  8
CSLAYER3
  6
CONTINUOUS
 62
     3
 10
3573.419497
 20
2773.356960
 11
3555.163932
 21
2771.722133
  0
LINE
  8
CSLAYER3
  6
CONTINUOUS
 62
     3
 10
3512.452270
 20
2754.612944
 11
3476.836409
 21
2726.239941
  0
ARC
  8
CSLAYER3
  6
CONTINUOUS
 62
     3
 10
3562.299555
 20
2692.041000
 40
80.000000
 50
95.117315
 51
128.542213
  0
ARC
  8
CSLAYER3
  6
CONTINUOUS
 62
     3
 10
3600.615606
 20
2693.356960
 40
80.000000
 50
78.495496
 51
90.000000
  0
LINE
  8
CSLAYER3
  6
CONTINUOUS
 62
     3
 10
3476.836409
 20
2726.239941
 11
3504.524836
 21
2710.942577
  0
LINE
  8
CSLAYER3
  6
CONTINUOUS
 62
     3
 10
3504.524836
 20
2710.942577
 11
3641.673455
 21
2705.984512
  0
LINE
  8
CSLAYER3
  6
CONTINUOUS
 62
     3
 10
3641.673455
 20
2705.984512
 11
3696.759171
 21
2710.444894
  0
LINE
  8
CSLAYER3
  6
CONTINUOUS
 62
     3
 10
3696.759171
 20
2710.444894
 11
3710.245836
 21
2752.683694
  0
LINE
  8
CSLAYER3
  6
CONTINUOUS
 62
     3
 10
3937.917077
 20
2726.469913
 11
3710.245836
 21
2752.683694
  0
INSERT
  8
CSLAYER1
  2
BLKF0007
 10
0.0
 20
0.0
 30
0.0
  0
LINE
  8
CSLAYER3
  6
CONTINUOUS
 62
     3
 10
4095.913097
 20
2587.999251
 11
4118.888526
 21
2568.975511
  0
LINE
  8
CSLAYER3
  6
CONTINUOUS
 62
     3
 10
4118.888526
 20
2568.975511
 11
4124.517766
 21
2568.171334
  0
LINE
  8
CSLAYER3
  6
CONTINUOUS
 62
     3
 10
4124.517766
 20
2568.171334
 11
4128.538651
 21
2571.656101
  0
LINE
  8
CSLAYER3
  6
CONTINUOUS
 62
     3
 10
4095.275338
 20
2587.229014
 11
4118.467959
 21
2568.025440
  0
LINE
  8
CSLAYER3
  6
CONTINUOUS
 62
     3
 10
4118.467959
 20
2568.025440
 11
4124.827955
 21
2567.116869
  0
LINE
  8
CSLAYER3
  6
CONTINUOUS
 62
     3
 10
4124.827955
 20
2567.116869
 11
4129.193582
 21
2570.900412
  0
LINE
  8
CSLAYER3
  6
CONTINUOUS
 62
     3
 10
4128.538651
 20
2571.656101
 11
4129.193582
 21
2570.900412
  0
INSERT
  8
CSLAYER1
  2
BLKF0008
 10
0.0
 20
0.0
 30
0.0
  0
INSERT
  8
CSLAYER1
  2
BLKF0009
 10
0.0
 20
0.0
 30
0.0
  0
LINE
  8
CSLAYER3
  6
CONTINUOUS
 62
     3
 10
4104.147433
 20
2661.168262
 11
4104.147433
 21
2593.195747
  0
ENDSEC
  0
EOF
