  0
SECTION
  2
HEADER
  9
$ACADVER
  1
AC1006
  9
$INSBASE
 10
3836.816088
 20
2425.368346
 30
0.0
  9
$EXTMIN
 10
3836.816088
 20
2425.368346
  9
$EXTMAX
 10
5810.060652
 20
3820.734145
  9
$LIMMIN
 10
3836.816088
 20
2425.368346
  9
$LIMMAX
 10
5810.060652
 20
3820.734145
  9
$VIEWCTR
 10
4823.438370
 20
3123.051245
  9
$VIEWSIZE
 40
1395.365799
  9
$SNAPMODE
 70
     0
  9
$SNAPUNIT
 10
1.0
 20
1.0
  9
$SNAPBASE
 10
0.0
 20
0.0
  9
$SNAPANG
 50
0.0
  9
$SNAPSTYLE
 70
     0
  9
$SNAPISOPAIR
 70
     0
  9
$GRIDMODE
 70
     0
  9
$GRIDUNIT
 10
0.0
 20
0.0
  9
$ORTHOMODE
 70
     0
  9
$REGENMODE
 70
     1
  9
$FILLMODE
 70
     1
  9
$QTEXTMODE
 70
     0
  9
$DRAGMODE
 70
     2
  9
$LTSCALE
 40
15.000000
  9
$OSMODE
 70
     0
  9
$ATTMODE
 70
     1
  9
$TEXTSIZE
 40
0.2
  9
$TRACEWID
 40
0.05
  9
$TEXTSTYLE
  7
STANDARD
  9
$CLAYER
  8
CSLAYER3
  9
$CELTYPE
  6
BYLAYER
  9
$CECOLOR
 62
   256
  9
$DIMSCALE
 40
1.0
  9
$DIMASZ
 40
0.18
  9
$DIMEXO
 40
0.0625
  9
$DIMDLI
 40
0.38
  9
$DIMRND
 40
0.0
  9
$DIMDLE
 40
0.0
  9
$DIMEXE
 40
0.18
  9
$DIMTP
 40
0.0
  9
$DIMTM
 40
0.0
  9
$DIMTXT
 40
0.18
  9
$DIMCEN
 40
0.09
  9
$DIMTSZ
 40
0.0
  9
$DIMTOL
 70
     0
  9
$DIMLIM
 70
     0
  9
$DIMTIH
 70
     1
  9
$DIMTOH
 70
     1
  9
$DIMSE1
 70
     0
  9
$DIMSE2
 70
     0
  9
$DIMTAD
 70
     0
  9
$DIMZIN
 70
     0
  9
$DIMBLK
  1

  9
$LUNITS
 70
     2
  9
$LUPREC
 70
     4
  9
$AXISMODE
 70
     0
  9
$AXISUNIT
 10
0.0
 20
0.0
  9
$SKETCHINC
 40
0.1
  9
$FILLETRAD
 40
0.0
  9
$AUNITS
 70
     0
  9
$AUPREC
 70
     0
  9
$MENU
  1
ACAD
  9
$ELEVATION
 40
0.0
  9
$THICKNESS
 40
0.0
  9
$VIEWDIR
 10
0.0
 20
0.0
 30
1.0
  9
$LIMCHECK
 70
     0
  9
$BLIPMODE
 70
     1
  9
$CHAMFERA
 40
0.0
  9
$CHAMFERB
 40
0.0
  9
$FASTZOOM
 70
     1
  9
$SKPOLY
 70
     0
  9
$TDCREATE
 40
2453299.000000
  9
$TDUPDATE
 40
2453299.000000
  9
$TDINDWG
 40
0.0
  9
$TDUSRTIMER
 40
0.0
  9
$USRTIMER
 70
     1
  9
$ANGBASE
 50
0.0
  9
$ANGDIR
 70
     0
  9
$PDMODE
 70
     0
  9
$PDSIZE
 40
0.0
  9
$PLINEWID
 40
0.0
  9
$COORDS
 70
     0
  9
$USERI1
 70
     0
  9
$USERI2
 70
     0
  9
$USERI3
 70
     0
  9
$USERI4
 70
     0
  9
$USERI5
 70
     0
  9
$USERR1
 40
0.0
  9
$USERR2
 40
0.0
  9
$USERR3
 40
0.0
  9
$USERR4
 40
0.0
  9
$USERR5
 40
0.0
  0
ENDSEC
  0
SECTION
  2
TABLES
  0
TABLE
  2
LTYPE
 70
     9
  0
LTYPE
  2
CONTINUOUS
 70
    64
  3
Solid line
 72
    65
 73
     0
 40
0.0
  0
LTYPE
  2
DASHED
 70
    64
  3
__ __ __ __ __ __ __ __ __ __ __ __ __ __ __
 72
    65
 73
     2
 40
0.75
 49
0.5
 49
-0.25
  0
LTYPE
  2
HIDDEN
 70
    64
  3
_ _ _ _ _ _ _ _ _ _ _ _ _ _ _ _ _ _ _ _ _ _ _
 72
    65
 73
     2
 40
0.375
 49
0.25
 49
-0.125
  0
LTYPE
  2
DOT
 70
    64
  3
...............................................
 72
    65
 73
     2
 40
0.25
 49
0.0
 49
-0.25
  0
LTYPE
  2
DASHDOT
 70
    64
  3
__ . __ . __ . __ . __ . __ . __ . __ . __ . __
 72
    65
 73
     4
 40
1.0
 49
0.5
 49
-0.25
 49
0.0
 49
-0.25
  0
LTYPE
  2
DIVIDE
 70
    64
  3
__ . . __ . . __ . . __ . . __ . . __ . . __
 72
    65
 73
     6
 40
1.25
 49
0.5
 49
-0.25
 49
0.0
 49
-0.25
 49
0.0
 49
-0.25
  0
LTYPE
  2
CENTER
 70
    64
  3
____ _ ____ _ ____ _ ____ _ ____ _ ____ _ ____ 
 72
    65
 73
     4
 40
2.0
 49
1.25
 49
-0.25
 49
0.25
 49
-0.25
  0
LTYPE
  2
PHANTOM
 70
    64
  3
______  __  __  ______  __  __  ______  __  __ 
 72
    65
 73
     6
 40
2.5
 49
1.25
 49
-0.25
 49
0.25
 49
-0.25
 49
0.25
 49
-0.25
  0
LTYPE
  2
BORDER
 70
    64
  3
__ __ . __ __ . __ __ . __ __ . __ __ . __ __ .
 72
    65
 73
     6
 40
1.75
 49
0.5
 49
-0.25
 49
0.5
 49
-0.25
 49
0.0
 49
-0.25
  0
ENDTAB
  0
TABLE
  2
LAYER
 70
    16
  0
LAYER
  2
CSLAYER1
 70
    64
 62
     7
  6
CONTINUOUS
  0
LAYER
  2
CSLAYER2
 70
    64
 62
     7
  6
CONTINUOUS
  0
LAYER
  2
CSLAYER3
 70
    64
 62
     7
  6
CONTINUOUS
  0
LAYER
  2
CSLAYER4
 70
    64
 62
     7
  6
CONTINUOUS
  0
LAYER
  2
CSLAYER5
 70
    64
 62
     7
  6
CONTINUOUS
  0
LAYER
  2
CSLAYER6
 70
    64
 62
     7
  6
CONTINUOUS
  0
LAYER
  2
CSLAYER7
 70
    64
 62
     7
  6
CONTINUOUS
  0
LAYER
  2
CSLAYER8
 70
    64
 62
     7
  6
CONTINUOUS
  0
LAYER
  2
CSLAYER9
 70
    64
 62
     7
  6
CONTINUOUS
  0
LAYER
  2
CSLAYER10
 70
    64
 62
     7
  6
CONTINUOUS
  0
LAYER
  2
CSLAYER11
 70
    64
 62
     7
  6
CONTINUOUS
  0
LAYER
  2
CSLAYER12
 70
    64
 62
     7
  6
CONTINUOUS
  0
LAYER
  2
CSLAYER13
 70
    64
 62
     7
  6
CONTINUOUS
  0
LAYER
  2
CSLAYER14
 70
    64
 62
     7
  6
CONTINUOUS
  0
LAYER
  2
CSLAYER15
 70
    64
 62
     7
  6
CONTINUOUS
  0
LAYER
  2
CSLAYER16
 70
    64
 62
     7
  6
CONTINUOUS
  0
ENDTAB
  0
TABLE
  2
STYLE
 70
     1
  0
STYLE
  2
FX_FONT
 70
     0
 40
1.0
 41
1.0
 50
0.0
 71
     0
 42
1.0
  3
monotxt
  4
bigfont
  0
ENDTAB
  0
TABLE
  2
VIEW
 70
     0
  0
ENDTAB
  0
ENDSEC
  0
SECTION
  2
BLOCKS
  0
BLOCK
  8
CSLAYER1
  2
BLKF0000
 70
   64
 10
0.0
 20
0.0
 30
0.0
  0
LINE
  8
CSLAYER3
  6
CONTINUOUS
 62
     7
 10
4671.494383
 20
2652.664482
 11
4671.494383
 21
2664.264482
  0
LINE
  8
CSLAYER3
  6
CONTINUOUS
 62
     7
 10
4682.994383
 20
2664.964482
 11
4682.994383
 21
2660.964482
  0
LINE
  8
CSLAYER3
  6
CONTINUOUS
 62
     7
 10
4685.994383
 20
2664.964482
 11
4685.994383
 21
2660.964482
  0
CIRCLE
  8
CSLAYER3
  6
CONTINUOUS
 62
     7
 10
4684.494383
 20
2664.964482
 40
0.500000
  0
ARC
  8
CSLAYER3
  6
CONTINUOUS
 62
     7
 10
4684.494383
 20
2664.964482
 40
1.500000
 50
0.000000
 51
180.000000
  0
CIRCLE
  8
CSLAYER3
  6
CONTINUOUS
 62
     7
 10
4684.494383
 20
2648.964482
 40
0.500000
  0
ARC
  8
CSLAYER3
  6
CONTINUOUS
 62
     7
 10
4684.494383
 20
2648.964482
 40
1.500000
 50
180.000000
 51
360.000000
  0
CIRCLE
  8
CSLAYER3
  6
CONTINUOUS
 62
     7
 10
4677.994383
 20
2658.464482
 40
0.500000
  0
ARC
  8
CSLAYER3
  6
CONTINUOUS
 62
     7
 10
4677.994383
 20
2658.464482
 40
1.500000
 50
90.000000
 51
270.000000
  0
CIRCLE
  8
CSLAYER3
  6
CONTINUOUS
 62
     7
 10
4690.994383
 20
2658.464482
 40
0.500000
  0
ARC
  8
CSLAYER3
  6
CONTINUOUS
 62
     7
 10
4690.994383
 20
2658.464482
 40
1.500000
 50
-90.000000
 51
90.000000
  0
LINE
  8
CSLAYER3
  6
CONTINUOUS
 62
     7
 10
4677.994383
 20
2659.964482
 11
4681.994383
 21
2659.964482
  0
LINE
  8
CSLAYER3
  6
CONTINUOUS
 62
     7
 10
4690.994383
 20
2656.964482
 11
4686.994383
 21
2656.964482
  0
ARC
  8
CSLAYER3
  6
CONTINUOUS
 62
     7
 10
4681.994383
 20
2660.964482
 40
1.000000
 50
270.000000
 51
360.000000
  0
ARC
  8
CSLAYER3
  6
CONTINUOUS
 62
     7
 10
4681.994383
 20
2655.964482
 40
1.000000
 50
0.000000
 51
90.000000
  0
ARC
  8
CSLAYER3
  6
CONTINUOUS
 62
     7
 10
4686.994383
 20
2655.964482
 40
1.000000
 50
90.000000
 51
180.000000
  0
ARC
  8
CSLAYER3
  6
CONTINUOUS
 62
     7
 10
4686.994383
 20
2660.964482
 40
1.000000
 50
180.000000
 51
270.000000
  0
LINE
  8
CSLAYER3
  6
CONTINUOUS
 62
     7
 10
4686.994383
 20
2659.964482
 11
4690.994383
 21
2659.964482
  0
LINE
  8
CSLAYER3
  6
CONTINUOUS
 62
     7
 10
4685.994383
 20
2655.964482
 11
4685.994383
 21
2648.964482
  0
LINE
  8
CSLAYER3
  6
CONTINUOUS
 62
     7
 10
4681.994383
 20
2656.964482
 11
4677.994383
 21
2656.964482
  0
LINE
  8
CSLAYER3
  6
CONTINUOUS
 62
     7
 10
4682.994383
 20
2655.964482
 11
4682.994383
 21
2648.964482
  0
LINE
  8
CSLAYER3
  6
CONTINUOUS
 62
     7
 10
4664.994383
 20
2664.264482
 11
4694.994383
 21
2664.264482
  0
LINE
  8
CSLAYER3
  6
CONTINUOUS
 62
     7
 10
4690.494383
 20
2664.264482
 11
4690.494383
 21
2652.664482
  0
LINE
  8
CSLAYER3
  6
CONTINUOUS
 62
     7
 10
4694.994383
 20
2652.664482
 11
4664.994383
 21
2652.664482
  0
LINE
  8
CSLAYER3
  6
CONTINUOUS
 62
     7
 10
4694.994383
 20
2664.264482
 11
4694.994383
 21
2652.664482
  0
LINE
  8
CSLAYER3
  6
CONTINUOUS
 62
     7
 10
4664.994383
 20
2664.264482
 11
4664.994383
 21
2652.664482
  0
CIRCLE
  8
CSLAYER3
  6
CONTINUOUS
 62
     7
 10
4692.994383
 20
2658.464482
 40
1.000000
  0
CIRCLE
  8
CSLAYER3
  6
CONTINUOUS
 62
     7
 10
4666.994383
 20
2658.464482
 40
1.000000
  0
CIRCLE
  8
CSLAYER3
  6
CONTINUOUS
 62
     7
 10
4684.494383
 20
2658.464482
 40
1.500000
  0
CIRCLE
  8
CSLAYER3
  6
CONTINUOUS
 62
     7
 10
4684.494383
 20
2658.464482
 40
5.811350
  0
ENDBLK
  8
0
  0
BLOCK
  8
CSLAYER1
  2
BLKF0001
 70
   64
 10
0.0
 20
0.0
 30
0.0
  0
LINE
  8
CSLAYER3
  6
CENTER
 62
     7
 10
4664.911579
 20
3308.958860
 11
4590.740614
 21
3308.958860
  0
ENDBLK
  8
0
  0
BLOCK
  8
CSLAYER1
  2
BLKF0002
 70
   64
 10
0.0
 20
0.0
 30
0.0
  0
LINE
  8
CSLAYER3
  6
CONTINUOUS
 62
     3
 10
4655.528619
 20
2672.265226
 11
4810.528619
 21
2672.265226
  0
LINE
  8
CSLAYER3
  6
CONTINUOUS
 62
     3
 10
4655.528619
 20
2677.055154
 11
4657.354452
 21
2681.240696
  0
LINE
  8
CSLAYER3
  6
CONTINUOUS
 62
     3
 10
4657.354452
 20
2681.240696
 11
4660.879119
 21
2684.177918
  0
LINE
  8
CSLAYER3
  6
CONTINUOUS
 62
     3
 10
4660.879119
 20
2684.177918
 11
4668.075314
 21
2686.968280
  0
LINE
  8
CSLAYER3
  6
CONTINUOUS
 62
     3
 10
4810.528619
 20
2672.265226
 11
4788.472607
 21
2676.929653
  0
LINE
  8
CSLAYER3
  6
CONTINUOUS
 62
     3
 10
4703.713615
 20
2692.265226
 11
4690.594021
 21
2691.237961
  0
LINE
  8
CSLAYER3
  6
CONTINUOUS
 62
     3
 10
4690.594021
 20
2691.237961
 11
4675.189920
 21
2689.083998
  0
LINE
  8
CSLAYER3
  6
CONTINUOUS
 62
     3
 10
4675.189920
 20
2689.083998
 11
4668.075314
 21
2686.968280
  0
LINE
  8
CSLAYER3
  6
CONTINUOUS
 62
     3
 10
4703.713615
 20
2692.265226
 11
4714.881852
 21
2691.309225
  0
LINE
  8
CSLAYER3
  6
CONTINUOUS
 62
     3
 10
4714.881852
 20
2691.309225
 11
4735.752451
 21
2688.739155
  0
LINE
  8
CSLAYER3
  6
CONTINUOUS
 62
     3
 10
4735.752451
 20
2688.739155
 11
4788.472607
 21
2676.929653
  0
LINE
  8
CSLAYER3
  6
CONTINUOUS
 62
     3
 10
4655.528619
 20
2677.055154
 11
4655.528619
 21
2672.265226
  0
ENDBLK
  8
0
  0
BLOCK
  8
CSLAYER1
  2
BLKF0003
 70
   64
 10
0.0
 20
0.0
 30
0.0
  0
CIRCLE
  8
CSLAYER3
  6
CONTINUOUS
 62
     3
 10
4700.528619
 20
2672.265226
 40
10.000000
  0
LINE
  8
CSLAYER3
  6
CONTINUOUS
 62
     3
 10
4690.537343
 20
2671.847620
 11
4700.528619
 21
2671.847620
  0
LINE
  8
CSLAYER3
  6
CONTINUOUS
 62
     3
 10
4690.530987
 20
2672.047620
 11
4700.528619
 21
2672.047620
  0
LINE
  8
CSLAYER3
  6
CONTINUOUS
 62
     3
 10
4690.528635
 20
2672.247620
 11
4700.528619
 21
2672.247620
  0
LINE
  8
CSLAYER3
  6
CONTINUOUS
 62
     3
 10
4700.528619
 20
2672.447620
 11
4710.526956
 21
2672.447620
  0
LINE
  8
CSLAYER3
  6
CONTINUOUS
 62
     3
 10
4700.528619
 20
2672.647620
 11
4710.521305
 21
2672.647620
  0
LINE
  8
CSLAYER3
  6
CONTINUOUS
 62
     3
 10
4700.528619
 20
2672.847620
 11
4710.511646
 21
2672.847620
  0
LINE
  8
CSLAYER3
  6
CONTINUOUS
 62
     3
 10
4700.528619
 20
2673.047620
 11
4710.497965
 21
2673.047620
  0
LINE
  8
CSLAYER3
  6
CONTINUOUS
 62
     3
 10
4700.528619
 20
2673.247620
 11
4710.480247
 21
2673.247620
  0
LINE
  8
CSLAYER3
  6
CONTINUOUS
 62
     3
 10
4700.528619
 20
2673.447620
 11
4710.458470
 21
2673.447620
  0
LINE
  8
CSLAYER3
  6
CONTINUOUS
 62
     3
 10
4700.528619
 20
2673.647620
 11
4710.432608
 21
2673.647620
  0
LINE
  8
CSLAYER3
  6
CONTINUOUS
 62
     3
 10
4700.528619
 20
2673.847620
 11
4710.402627
 21
2673.847620
  0
LINE
  8
CSLAYER3
  6
CONTINUOUS
 62
     3
 10
4700.528619
 20
2674.047620
 11
4710.368491
 21
2674.047620
  0
LINE
  8
CSLAYER3
  6
CONTINUOUS
 62
     3
 10
4700.528619
 20
2674.247620
 11
4710.330156
 21
2674.247620
  0
LINE
  8
CSLAYER3
  6
CONTINUOUS
 62
     3
 10
4700.528619
 20
2674.447620
 11
4710.287572
 21
2674.447620
  0
LINE
  8
CSLAYER3
  6
CONTINUOUS
 62
     3
 10
4700.528619
 20
2674.647620
 11
4710.240684
 21
2674.647620
  0
LINE
  8
CSLAYER3
  6
CONTINUOUS
 62
     3
 10
4700.528619
 20
2674.847620
 11
4710.189429
 21
2674.847620
  0
LINE
  8
CSLAYER3
  6
CONTINUOUS
 62
     3
 10
4700.528619
 20
2675.047620
 11
4710.133737
 21
2675.047620
  0
LINE
  8
CSLAYER3
  6
CONTINUOUS
 62
     3
 10
4700.528619
 20
2675.247620
 11
4710.073530
 21
2675.247620
  0
LINE
  8
CSLAYER3
  6
CONTINUOUS
 62
     3
 10
4700.528619
 20
2675.447620
 11
4710.008723
 21
2675.447620
  0
LINE
  8
CSLAYER3
  6
CONTINUOUS
 62
     3
 10
4700.528619
 20
2675.647620
 11
4709.939220
 21
2675.647620
  0
LINE
  8
CSLAYER3
  6
CONTINUOUS
 62
     3
 10
4700.528619
 20
2675.847620
 11
4709.864917
 21
2675.847620
  0
LINE
  8
CSLAYER3
  6
CONTINUOUS
 62
     3
 10
4700.528619
 20
2676.047620
 11
4709.785697
 21
2676.047620
  0
LINE
  8
CSLAYER3
  6
CONTINUOUS
 62
     3
 10
4700.528619
 20
2676.247620
 11
4709.701434
 21
2676.247620
  0
LINE
  8
CSLAYER3
  6
CONTINUOUS
 62
     3
 10
4700.528619
 20
2676.447620
 11
4709.611988
 21
2676.447620
  0
LINE
  8
CSLAYER3
  6
CONTINUOUS
 62
     3
 10
4700.528619
 20
2676.647620
 11
4709.517202
 21
2676.647620
  0
LINE
  8
CSLAYER3
  6
CONTINUOUS
 62
     3
 10
4700.528619
 20
2676.847620
 11
4709.416907
 21
2676.847620
  0
LINE
  8
CSLAYER3
  6
CONTINUOUS
 62
     3
 10
4700.528619
 20
2677.047620
 11
4709.310914
 21
2677.047620
  0
LINE
  8
CSLAYER3
  6
CONTINUOUS
 62
     3
 10
4700.528619
 20
2677.247620
 11
4709.199014
 21
2677.247620
  0
LINE
  8
CSLAYER3
  6
CONTINUOUS
 62
     3
 10
4700.528619
 20
2677.447620
 11
4709.080975
 21
2677.447620
  0
LINE
  8
CSLAYER3
  6
CONTINUOUS
 62
     3
 10
4700.528619
 20
2677.647620
 11
4708.956539
 21
2677.647620
  0
LINE
  8
CSLAYER3
  6
CONTINUOUS
 62
     3
 10
4700.528619
 20
2677.847620
 11
4708.825418
 21
2677.847620
  0
LINE
  8
CSLAYER3
  6
CONTINUOUS
 62
     3
 10
4700.528619
 20
2678.047620
 11
4708.687291
 21
2678.047620
  0
LINE
  8
CSLAYER3
  6
CONTINUOUS
 62
     3
 10
4700.528619
 20
2678.247620
 11
4708.541793
 21
2678.247620
  0
LINE
  8
CSLAYER3
  6
CONTINUOUS
 62
     3
 10
4700.528619
 20
2678.447620
 11
4708.388518
 21
2678.447620
  0
LINE
  8
CSLAYER3
  6
CONTINUOUS
 62
     3
 10
4700.528619
 20
2678.647620
 11
4708.226999
 21
2678.647620
  0
LINE
  8
CSLAYER3
  6
CONTINUOUS
 62
     3
 10
4700.528619
 20
2678.847620
 11
4708.056706
 21
2678.847620
  0
LINE
  8
CSLAYER3
  6
CONTINUOUS
 62
     3
 10
4700.528619
 20
2679.047620
 11
4707.877029
 21
2679.047620
  0
LINE
  8
CSLAYER3
  6
CONTINUOUS
 62
     3
 10
4700.528619
 20
2679.247620
 11
4707.687262
 21
2679.247620
  0
LINE
  8
CSLAYER3
  6
CONTINUOUS
 62
     3
 10
4700.528619
 20
2679.447620
 11
4707.486580
 21
2679.447620
  0
LINE
  8
CSLAYER3
  6
CONTINUOUS
 62
     3
 10
4700.528619
 20
2679.647620
 11
4707.274007
 21
2679.647620
  0
LINE
  8
CSLAYER3
  6
CONTINUOUS
 62
     3
 10
4700.528619
 20
2679.847620
 11
4707.048381
 21
2679.847620
  0
LINE
  8
CSLAYER3
  6
CONTINUOUS
 62
     3
 10
4700.528619
 20
2680.047620
 11
4706.808296
 21
2680.047620
  0
LINE
  8
CSLAYER3
  6
CONTINUOUS
 62
     3
 10
4700.528619
 20
2680.247620
 11
4706.552022
 21
2680.247620
  0
LINE
  8
CSLAYER3
  6
CONTINUOUS
 62
     3
 10
4700.528619
 20
2680.447620
 11
4706.277395
 21
2680.447620
  0
LINE
  8
CSLAYER3
  6
CONTINUOUS
 62
     3
 10
4700.528619
 20
2680.647620
 11
4705.981643
 21
2680.647620
  0
LINE
  8
CSLAYER3
  6
CONTINUOUS
 62
     3
 10
4700.528619
 20
2680.847620
 11
4705.661115
 21
2680.847620
  0
LINE
  8
CSLAYER3
  6
CONTINUOUS
 62
     3
 10
4700.528619
 20
2681.047620
 11
4705.310831
 21
2681.047620
  0
LINE
  8
CSLAYER3
  6
CONTINUOUS
 62
     3
 10
4700.528619
 20
2681.247620
 11
4704.923684
 21
2681.247620
  0
LINE
  8
CSLAYER3
  6
CONTINUOUS
 62
     3
 10
4700.528619
 20
2681.447620
 11
4704.488877
 21
2681.447620
  0
LINE
  8
CSLAYER3
  6
CONTINUOUS
 62
     3
 10
4700.528619
 20
2681.647620
 11
4703.988486
 21
2681.647620
  0
LINE
  8
CSLAYER3
  6
CONTINUOUS
 62
     3
 10
4700.528619
 20
2681.847620
 11
4703.388291
 21
2681.847620
  0
LINE
  8
CSLAYER3
  6
CONTINUOUS
 62
     3
 10
4700.528619
 20
2682.047620
 11
4702.603412
 21
2682.047620
  0
LINE
  8
CSLAYER3
  6
CONTINUOUS
 62
     3
 10
4700.528619
 20
2682.247620
 11
4701.121753
 21
2682.247620
  0
LINE
  8
CSLAYER3
  6
CONTINUOUS
 62
     3
 10
4690.547709
 20
2671.647620
 11
4700.528619
 21
2671.647620
  0
LINE
  8
CSLAYER3
  6
CONTINUOUS
 62
     3
 10
4690.562099
 20
2671.447620
 11
4700.528619
 21
2671.447620
  0
LINE
  8
CSLAYER3
  6
CONTINUOUS
 62
     3
 10
4690.580530
 20
2671.247620
 11
4700.528619
 21
2671.247620
  0
LINE
  8
CSLAYER3
  6
CONTINUOUS
 62
     3
 10
4690.603024
 20
2671.047620
 11
4700.528619
 21
2671.047620
  0
LINE
  8
CSLAYER3
  6
CONTINUOUS
 62
     3
 10
4690.629610
 20
2670.847620
 11
4700.528619
 21
2670.847620
  0
LINE
  8
CSLAYER3
  6
CONTINUOUS
 62
     3
 10
4690.660319
 20
2670.647620
 11
4700.528619
 21
2670.647620
  0
LINE
  8
CSLAYER3
  6
CONTINUOUS
 62
     3
 10
4690.695191
 20
2670.447620
 11
4700.528619
 21
2670.447620
  0
LINE
  8
CSLAYER3
  6
CONTINUOUS
 62
     3
 10
4690.734271
 20
2670.247620
 11
4700.528619
 21
2670.247620
  0
LINE
  8
CSLAYER3
  6
CONTINUOUS
 62
     3
 10
4690.777608
 20
2670.047620
 11
4700.528619
 21
2670.047620
  0
LINE
  8
CSLAYER3
  6
CONTINUOUS
 62
     3
 10
4690.825260
 20
2669.847620
 11
4700.528619
 21
2669.847620
  0
LINE
  8
CSLAYER3
  6
CONTINUOUS
 62
     3
 10
4690.877291
 20
2669.647620
 11
4700.528619
 21
2669.647620
  0
LINE
  8
CSLAYER3
  6
CONTINUOUS
 62
     3
 10
4690.933772
 20
2669.447620
 11
4700.528619
 21
2669.447620
  0
LINE
  8
CSLAYER3
  6
CONTINUOUS
 62
     3
 10
4690.994782
 20
2669.247620
 11
4700.528619
 21
2669.247620
  0
LINE
  8
CSLAYER3
  6
CONTINUOUS
 62
     3
 10
4691.060409
 20
2669.047620
 11
4700.528619
 21
2669.047620
  0
LINE
  8
CSLAYER3
  6
CONTINUOUS
 62
     3
 10
4691.130749
 20
2668.847620
 11
4700.528619
 21
2668.847620
  0
LINE
  8
CSLAYER3
  6
CONTINUOUS
 62
     3
 10
4691.205909
 20
2668.647620
 11
4700.528619
 21
2668.647620
  0
LINE
  8
CSLAYER3
  6
CONTINUOUS
 62
     3
 10
4691.286007
 20
2668.447620
 11
4700.528619
 21
2668.447620
  0
LINE
  8
CSLAYER3
  6
CONTINUOUS
 62
     3
 10
4691.371172
 20
2668.247620
 11
4700.528619
 21
2668.247620
  0
LINE
  8
CSLAYER3
  6
CONTINUOUS
 62
     3
 10
4691.461547
 20
2668.047620
 11
4700.528619
 21
2668.047620
  0
LINE
  8
CSLAYER3
  6
CONTINUOUS
 62
     3
 10
4691.557289
 20
2667.847620
 11
4700.528619
 21
2667.847620
  0
LINE
  8
CSLAYER3
  6
CONTINUOUS
 62
     3
 10
4691.658573
 20
2667.647620
 11
4700.528619
 21
2667.647620
  0
LINE
  8
CSLAYER3
  6
CONTINUOUS
 62
     3
 10
4691.765590
 20
2667.447620
 11
4700.528619
 21
2667.447620
  0
LINE
  8
CSLAYER3
  6
CONTINUOUS
 62
     3
 10
4691.878554
 20
2667.247620
 11
4700.528619
 21
2667.247620
  0
LINE
  8
CSLAYER3
  6
CONTINUOUS
 62
     3
 10
4691.997700
 20
2667.047620
 11
4700.528619
 21
2667.047620
  0
LINE
  8
CSLAYER3
  6
CONTINUOUS
 62
     3
 10
4692.123291
 20
2666.847620
 11
4700.528619
 21
2666.847620
  0
LINE
  8
CSLAYER3
  6
CONTINUOUS
 62
     3
 10
4692.255621
 20
2666.647620
 11
4700.528619
 21
2666.647620
  0
LINE
  8
CSLAYER3
  6
CONTINUOUS
 62
     3
 10
4692.395018
 20
2666.447620
 11
4700.528619
 21
2666.447620
  0
LINE
  8
CSLAYER3
  6
CONTINUOUS
 62
     3
 10
4692.541854
 20
2666.247620
 11
4700.528619
 21
2666.247620
  0
LINE
  8
CSLAYER3
  6
CONTINUOUS
 62
     3
 10
4692.696546
 20
2666.047620
 11
4700.528619
 21
2666.047620
  0
LINE
  8
CSLAYER3
  6
CONTINUOUS
 62
     3
 10
4692.859569
 20
2665.847620
 11
4700.528619
 21
2665.847620
  0
LINE
  8
CSLAYER3
  6
CONTINUOUS
 62
     3
 10
4693.031467
 20
2665.647620
 11
4700.528619
 21
2665.647620
  0
LINE
  8
CSLAYER3
  6
CONTINUOUS
 62
     3
 10
4693.212866
 20
2665.447620
 11
4700.528619
 21
2665.447620
  0
LINE
  8
CSLAYER3
  6
CONTINUOUS
 62
     3
 10
4693.404491
 20
2665.247620
 11
4700.528619
 21
2665.247620
  0
LINE
  8
CSLAYER3
  6
CONTINUOUS
 62
     3
 10
4693.607191
 20
2665.047620
 11
4700.528619
 21
2665.047620
  0
LINE
  8
CSLAYER3
  6
CONTINUOUS
 62
     3
 10
4693.821972
 20
2664.847620
 11
4700.528619
 21
2664.847620
  0
LINE
  8
CSLAYER3
  6
CONTINUOUS
 62
     3
 10
4694.050033
 20
2664.647620
 11
4700.528619
 21
2664.647620
  0
LINE
  8
CSLAYER3
  6
CONTINUOUS
 62
     3
 10
4694.292832
 20
2664.447620
 11
4700.528619
 21
2664.447620
  0
LINE
  8
CSLAYER3
  6
CONTINUOUS
 62
     3
 10
4694.552166
 20
2664.247620
 11
4700.528619
 21
2664.247620
  0
LINE
  8
CSLAYER3
  6
CONTINUOUS
 62
     3
 10
4694.830290
 20
2664.047620
 11
4700.528619
 21
2664.047620
  0
LINE
  8
CSLAYER3
  6
CONTINUOUS
 62
     3
 10
4695.130109
 20
2663.847620
 11
4700.528619
 21
2663.847620
  0
LINE
  8
CSLAYER3
  6
CONTINUOUS
 62
     3
 10
4695.455467
 20
2663.647620
 11
4700.528619
 21
2663.647620
  0
LINE
  8
CSLAYER3
  6
CONTINUOUS
 62
     3
 10
4695.811647
 20
2663.447620
 11
4700.528619
 21
2663.447620
  0
LINE
  8
CSLAYER3
  6
CONTINUOUS
 62
     3
 10
4696.206261
 20
2663.247620
 11
4700.528619
 21
2663.247620
  0
LINE
  8
CSLAYER3
  6
CONTINUOUS
 62
     3
 10
4696.651024
 20
2663.047620
 11
4700.528619
 21
2663.047620
  0
LINE
  8
CSLAYER3
  6
CONTINUOUS
 62
     3
 10
4697.165778
 20
2662.847620
 11
4700.528619
 21
2662.847620
  0
LINE
  8
CSLAYER3
  6
CONTINUOUS
 62
     3
 10
4697.789704
 20
2662.647620
 11
4700.528619
 21
2662.647620
  0
LINE
  8
CSLAYER3
  6
CONTINUOUS
 62
     3
 10
4698.627405
 20
2662.447620
 11
4700.528619
 21
2662.447620
  0
ENDBLK
  8
0
  0
BLOCK
  8
CSLAYER1
  2
BLKF0004
 70
   64
 10
0.0
 20
0.0
 30
0.0
  0
LINE
  8
CSLAYER3
  6
CENTER
 62
     7
 10
4689.040296
 20
2707.958302
 11
4615.409658
 21
2716.894810
  0
LINE
  8
CSLAYER3
  6
CONTINUOUS
 62
     3
 10
4653.375490
 20
2724.374979
 11
4650.483844
 21
2700.549816
  0
LINE
  8
CSLAYER3
  6
CONTINUOUS
 62
     3
 10
4646.426484
 20
2725.218376
 11
4643.534838
 21
2701.393213
  0
LINE
  8
CSLAYER3
  6
CONTINUOUS
 62
     3
 10
4645.337768
 20
2724.547882
 11
4642.638124
 21
2702.304677
  0
LINE
  8
CSLAYER3
  6
CONTINUOUS
 62
     3
 10
4653.375490
 20
2724.374979
 11
4646.426484
 21
2725.218376
  0
LINE
  8
CSLAYER3
  6
CONTINUOUS
 62
     3
 10
4650.483844
 20
2700.549816
 11
4643.534838
 21
2701.393213
  0
LINE
  8
CSLAYER3
  6
CONTINUOUS
 62
     3
 10
4642.638124
 20
2702.304677
 11
4643.630839
 21
2702.184192
  0
LINE
  8
CSLAYER3
  6
CONTINUOUS
 62
     3
 10
4645.337768
 20
2724.547882
 11
4646.330483
 21
2724.427397
  0
LINE
  8
CSLAYER3
  6
CONTINUOUS
 62
     3
 10
4637.429229
 20
2709.185615
 11
4643.385520
 21
2708.462704
  0
LINE
  8
CSLAYER3
  6
CONTINUOUS
 62
     3
 10
4638.634082
 20
2719.112767
 11
4644.590372
 21
2718.389855
  0
LINE
  8
CSLAYER3
  6
CONTINUOUS
 62
     3
 10
4638.634082
 20
2719.112767
 11
4637.429229
 21
2709.185615
  0
LINE
  8
CSLAYER3
  6
CONTINUOUS
 62
     3
 10
4637.850927
 20
2712.660118
 11
4620.974770
 21
2714.708368
  0
LINE
  8
CSLAYER3
  6
CONTINUOUS
 62
     3
 10
4621.336226
 20
2717.686513
 11
4620.974770
 21
2714.708368
  0
LINE
  8
CSLAYER3
  6
CONTINUOUS
 62
     3
 10
4638.212383
 20
2715.638264
 11
4621.336226
 21
2717.686513
  0
LINE
  8
CSLAYER3
  6
CONTINUOUS
 62
     3
 10
4655.264919
 20
2723.343030
 11
4652.565275
 21
2701.099825
  0
LINE
  8
CSLAYER3
  6
CONTINUOUS
 62
     3
 10
4680.448602
 20
2715.045101
 11
4679.002779
 21
2703.132520
  0
LINE
  8
CSLAYER3
  6
CONTINUOUS
 62
     3
 10
4679.002779
 20
2703.132520
 11
4653.192186
 21
2706.265136
  0
LINE
  8
CSLAYER3
  6
CONTINUOUS
 62
     3
 10
4680.448602
 20
2715.045101
 11
4654.638009
 21
2718.177718
  0
LINE
  8
CSLAYER3
  6
CONTINUOUS
 62
     3
 10
4649.567492
 20
2790.817815
 11
4631.360135
 21
2793.027631
  0
LINE
  8
CSLAYER3
  6
CONTINUOUS
 62
     3
 10
4622.438863
 20
2637.972958
 11
4641.114077
 21
2791.843801
  0
LINE
  8
CSLAYER3
  6
CONTINUOUS
 62
     3
 10
4630.892279
 20
2636.946971
 11
4612.684922
 21
2639.156788
  0
ENDBLK
  8
0
  0
BLOCK
  8
CSLAYER1
  2
BLKF0005
 70
   64
 10
0.0
 20
0.0
 30
0.0
  0
LINE
  8
CSLAYER3
  6
CONTINUOUS
 62
     3
 10
4537.026104
 20
2610.346215
 11
4500.028035
 21
2610.405497
  0
LINE
  8
CSLAYER3
  6
CONTINUOUS
 62
     3
 10
4500.028035
 20
2610.405497
 11
4500.028035
 21
2596.405497
  0
LINE
  8
CSLAYER3
  6
CONTINUOUS
 62
     3
 10
4500.028035
 20
2596.405497
 11
4537.026104
 21
2596.346215
  0
LINE
  8
CSLAYER3
  6
CONTINUOUS
 62
     3
 10
4537.026104
 20
2596.346215
 11
4537.026104
 21
2610.346215
  0
ENDBLK
  8
0
  0
BLOCK
  8
CSLAYER1
  2
BLKF0006
 70
   64
 10
0.0
 20
0.0
 30
0.0
  0
LINE
  8
CSLAYER3
  6
CONTINUOUS
 62
     3
 10
4945.224889
 20
2860.801574
 11
4929.930852
 21
2839.267851
  0
LINE
  8
CSLAYER3
  6
CONTINUOUS
 62
     3
 10
4945.224889
 20
2860.801574
 11
4962.469886
 21
2840.796103
  0
LINE
  8
CSLAYER3
  6
CONTINUOUS
 62
     3
 10
4962.469886
 20
2840.796103
 11
4929.930852
 21
2839.267851
  0
ENDBLK
  8
0
  0
BLOCK
  8
CSLAYER1
  2
BLKF0007
 70
   64
 10
0.0
 20
0.0
 30
0.0
  0
LINE
  8
CSLAYER3
  6
CONTINUOUS
 62
     3
 10
4928.097070
 20
2810.649297
 11
4944.037980
 21
2794.015304
  0
LINE
  8
CSLAYER3
  6
CONTINUOUS
 62
     3
 10
4944.037980
 20
2794.015304
 11
4958.939265
 21
2812.382005
  0
LINE
  8
CSLAYER3
  6
CONTINUOUS
 62
     3
 10
4958.939265
 20
2812.382005
 11
4972.411067
 21
2794.506238
  0
LINE
  8
CSLAYER3
  6
CONTINUOUS
 62
     3
 10
4972.411067
 20
2794.506238
 11
4989.088378
 21
2810.649297
  0
LINE
  8
CSLAYER3
  6
CONTINUOUS
 62
     3
 10
4989.088378
 20
2810.649297
 11
4999.831165
 21
2798.173802
  0
LINE
  8
CSLAYER3
  6
CONTINUOUS
 62
     3
 10
4999.831165
 20
2798.173802
 11
5020.926881
 21
2819.457227
  0
LINE
  8
CSLAYER3
  6
CONTINUOUS
 62
     3
 10
4928.097070
 20
2810.649297
 11
4942.204198
 21
2786.073727
  0
LINE
  8
CSLAYER3
  6
CONTINUOUS
 62
     3
 10
4942.204198
 20
2786.073727
 11
4959.762301
 21
2799.011277
  0
LINE
  8
CSLAYER3
  6
CONTINUOUS
 62
     3
 10
4959.762301
 20
2799.011277
 11
4974.836858
 21
2782.377284
  0
LINE
  8
CSLAYER3
  6
CONTINUOUS
 62
     3
 10
4974.836858
 20
2782.377284
 11
4987.485623
 21
2799.935388
  0
LINE
  8
CSLAYER3
  6
CONTINUOUS
 62
     3
 10
4987.485623
 20
2799.935388
 11
5000.654201
 21
2791.618392
  0
LINE
  8
CSLAYER3
  6
CONTINUOUS
 62
     3
 10
5000.654201
 20
2791.618392
 11
5020.926881
 21
2819.457227
  0
ENDBLK
  8
0
  0
BLOCK
  8
CSLAYER1
  2
BLKF0008
 70
   64
 10
0.0
 20
0.0
 30
0.0
  0
LINE
  8
CSLAYER3
  6
CONTINUOUS
 62
     3
 10
5001.467519
 20
2860.356228
 11
4983.219694
 21
2841.261055
  0
LINE
  8
CSLAYER3
  6
CONTINUOUS
 62
     3
 10
5001.467519
 20
2860.356228
 11
5015.637609
 21
2838.066828
  0
LINE
  8
CSLAYER3
  6
CONTINUOUS
 62
     3
 10
5015.637609
 20
2838.066828
 11
4983.219694
 21
2841.261055
  0
ENDBLK
  8
0
  0
BLOCK
  8
CSLAYER1
  2
BLKF0009
 70
   64
 10
0.0
 20
0.0
 30
0.0
  0
LINE
  8
CSLAYER3
  6
CONTINUOUS
 62
     3
 10
4694.412047
 20
2946.789212
 11
4706.554492
 21
2946.886082
  0
LINE
  8
CSLAYER3
  6
CONTINUOUS
 62
     3
 10
4658.551167
 20
2936.720154
 11
4810.528619
 21
2936.720154
  0
LINE
  8
CSLAYER3
  6
CONTINUOUS
 62
     3
 10
4655.479720
 20
2939.132718
 11
4657.251398
 21
2941.252734
  0
LINE
  8
CSLAYER3
  6
CONTINUOUS
 62
     3
 10
4657.251398
 20
2941.252734
 11
4660.737876
 21
2942.755044
  0
LINE
  8
CSLAYER3
  6
CONTINUOUS
 62
     3
 10
4660.737876
 20
2942.755044
 11
4667.897470
 21
2944.207246
  0
LINE
  8
CSLAYER3
  6
CONTINUOUS
 62
     3
 10
4810.528619
 20
2937.727503
 11
4788.414262
 21
2939.933512
  0
LINE
  8
CSLAYER3
  6
CONTINUOUS
 62
     3
 10
4694.412047
 20
2946.789212
 11
4690.359214
 21
2946.504124
  0
LINE
  8
CSLAYER3
  6
CONTINUOUS
 62
     3
 10
4690.359214
 20
2946.504124
 11
4674.984187
 21
2945.319116
  0
LINE
  8
CSLAYER3
  6
CONTINUOUS
 62
     3
 10
4674.984187
 20
2945.319116
 11
4667.897470
 21
2944.207246
  0
LINE
  8
CSLAYER3
  6
CONTINUOUS
 62
     3
 10
4706.554492
 20
2946.886082
 11
4714.644105
 21
2946.697864
  0
LINE
  8
CSLAYER3
  6
CONTINUOUS
 62
     3
 10
4714.644105
 20
2946.697864
 11
4735.546126
 21
2945.539025
  0
LINE
  8
CSLAYER3
  6
CONTINUOUS
 62
     3
 10
4735.546126
 20
2945.539025
 11
4788.414262
 21
2939.933512
  0
LINE
  8
CSLAYER3
  6
CONTINUOUS
 62
     3
 10
4810.528619
 20
2937.727503
 11
4810.528619
 21
2936.720154
  0
LINE
  8
CSLAYER3
  6
CONTINUOUS
 62
     3
 10
4655.479720
 20
2939.132718
 11
4655.664957
 21
2937.855049
  0
LINE
  8
CSLAYER3
  6
CONTINUOUS
 62
     3
 10
4655.664957
 20
2937.855049
 11
4656.786333
 21
2937.203293
  0
LINE
  8
CSLAYER3
  6
CONTINUOUS
 62
     3
 10
4656.786333
 20
2937.203293
 11
4658.551167
 21
2936.720154
  0
ENDBLK
  8
0
  0
BLOCK
  8
CSLAYER1
  2
BLKF0010
 70
   64
 10
0.0
 20
0.0
 30
0.0
  0
LINE
  8
CSLAYER3
  6
CONTINUOUS
 62
     3
 10
4694.412047
 20
3671.128508
 11
4706.554492
 21
3671.031637
  0
LINE
  8
CSLAYER3
  6
CONTINUOUS
 62
     3
 10
4658.551167
 20
3681.197565
 11
4810.528619
 21
3681.197565
  0
LINE
  8
CSLAYER3
  6
CONTINUOUS
 62
     3
 10
4655.479720
 20
3678.785001
 11
4657.251398
 21
3676.664985
  0
LINE
  8
CSLAYER3
  6
CONTINUOUS
 62
     3
 10
4657.251398
 20
3676.664985
 11
4660.737876
 21
3675.162675
  0
LINE
  8
CSLAYER3
  6
CONTINUOUS
 62
     3
 10
4660.737876
 20
3675.162675
 11
4667.897470
 21
3673.710474
  0
LINE
  8
CSLAYER3
  6
CONTINUOUS
 62
     3
 10
4810.528619
 20
3680.190216
 11
4788.414262
 21
3677.984207
  0
LINE
  8
CSLAYER3
  6
CONTINUOUS
 62
     3
 10
4694.412047
 20
3671.128508
 11
4690.359214
 21
3671.413596
  0
LINE
  8
CSLAYER3
  6
CONTINUOUS
 62
     3
 10
4690.359214
 20
3671.413596
 11
4674.984187
 21
3672.598603
  0
LINE
  8
CSLAYER3
  6
CONTINUOUS
 62
     3
 10
4674.984187
 20
3672.598603
 11
4667.897470
 21
3673.710474
  0
LINE
  8
CSLAYER3
  6
CONTINUOUS
 62
     3
 10
4706.554492
 20
3671.031637
 11
4714.644105
 21
3671.219855
  0
LINE
  8
CSLAYER3
  6
CONTINUOUS
 62
     3
 10
4714.644105
 20
3671.219855
 11
4735.546126
 21
3672.378694
  0
LINE
  8
CSLAYER3
  6
CONTINUOUS
 62
     3
 10
4735.546126
 20
3672.378694
 11
4788.414262
 21
3677.984207
  0
LINE
  8
CSLAYER3
  6
CONTINUOUS
 62
     3
 10
4810.528619
 20
3680.190216
 11
4810.528619
 21
3681.197565
  0
LINE
  8
CSLAYER3
  6
CONTINUOUS
 62
     3
 10
4655.479720
 20
3678.785001
 11
4655.664957
 21
3680.062670
  0
LINE
  8
CSLAYER3
  6
CONTINUOUS
 62
     3
 10
4655.664957
 20
3680.062670
 11
4656.786333
 21
3680.714426
  0
LINE
  8
CSLAYER3
  6
CONTINUOUS
 62
     3
 10
4656.786333
 20
3680.714426
 11
4658.551167
 21
3681.197565
  0
ENDBLK
  8
0
  0
BLOCK
  8
CSLAYER1
  2
BLKF0011
 70
   64
 10
0.0
 20
0.0
 30
0.0
  0
POLYLINE
  8
CSLAYER3
  6
CONTINUOUS
 62
     3
 66
     1
 10
0.0
 20
0.0
 30
0.0
  0
VERTEX
  8
CSLAYER3
  6
CONTINUOUS
 62
     3
 10
4631.776470
 20
3386.458860
 30
0.0
  0
VERTEX
  8
CSLAYER3
  6
CONTINUOUS
 62
     3
 10
4630.456804
 20
3386.163949
 30
0.0
  0
VERTEX
  8
CSLAYER3
  6
CONTINUOUS
 62
     3
 10
4629.147182
 20
3385.281461
 30
0.0
  0
VERTEX
  8
CSLAYER3
  6
CONTINUOUS
 62
     3
 10
4627.857570
 20
3383.818111
 30
0.0
  0
VERTEX
  8
CSLAYER3
  6
CONTINUOUS
 62
     3
 10
4626.597783
 20
3381.785038
 30
0.0
  0
VERTEX
  8
CSLAYER3
  6
CONTINUOUS
 62
     3
 10
4625.377410
 20
3379.197713
 30
0.0
  0
VERTEX
  8
CSLAYER3
  6
CONTINUOUS
 62
     3
 10
4624.205736
 20
3376.075828
 30
0.0
  0
VERTEX
  8
CSLAYER3
  6
CONTINUOUS
 62
     3
 10
4623.091681
 20
3372.443143
 30
0.0
  0
VERTEX
  8
CSLAYER3
  6
CONTINUOUS
 62
     3
 10
4622.043723
 20
3368.327304
 30
0.0
  0
VERTEX
  8
CSLAYER3
  6
CONTINUOUS
 62
     3
 10
4621.069836
 20
3363.759635
 30
0.0
  0
VERTEX
  8
CSLAYER3
  6
CONTINUOUS
 62
     3
 10
4620.177433
 20
3358.774899
 30
0.0
  0
VERTEX
  8
CSLAYER3
  6
CONTINUOUS
 62
     3
 10
4619.373306
 20
3353.411033
 30
0.0
  0
VERTEX
  8
CSLAYER3
  6
CONTINUOUS
 62
     3
 10
4618.663575
 20
3347.708860
 30
0.0
  0
VERTEX
  8
CSLAYER3
  6
CONTINUOUS
 62
     3
 10
4618.053640
 20
3341.711775
 30
0.0
  0
VERTEX
  8
CSLAYER3
  6
CONTINUOUS
 62
     3
 10
4617.548145
 20
3335.465421
 30
0.0
  0
VERTEX
  8
CSLAYER3
  6
CONTINUOUS
 62
     3
 10
4617.150936
 20
3329.017336
 30
0.0
  0
VERTEX
  8
CSLAYER3
  6
CONTINUOUS
 62
     3
 10
4616.865036
 20
3322.416593
 30
0.0
  0
VERTEX
  8
CSLAYER3
  6
CONTINUOUS
 62
     3
 10
4616.692621
 20
3315.713430
 30
0.0
  0
VERTEX
  8
CSLAYER3
  6
CONTINUOUS
 62
     3
 10
4616.635003
 20
3308.958860
 30
0.0
  0
VERTEX
  8
CSLAYER3
  6
CONTINUOUS
 62
     3
 10
4616.692621
 20
3302.204290
 30
0.0
  0
VERTEX
  8
CSLAYER3
  6
CONTINUOUS
 62
     3
 10
4616.865036
 20
3295.501126
 30
0.0
  0
VERTEX
  8
CSLAYER3
  6
CONTINUOUS
 62
     3
 10
4617.150936
 20
3288.900384
 30
0.0
  0
VERTEX
  8
CSLAYER3
  6
CONTINUOUS
 62
     3
 10
4617.548145
 20
3282.452299
 30
0.0
  0
VERTEX
  8
CSLAYER3
  6
CONTINUOUS
 62
     3
 10
4618.053640
 20
3276.205944
 30
0.0
  0
VERTEX
  8
CSLAYER3
  6
CONTINUOUS
 62
     3
 10
4618.663575
 20
3270.208860
 30
0.0
  0
VERTEX
  8
CSLAYER3
  6
CONTINUOUS
 62
     3
 10
4619.373306
 20
3264.506686
 30
0.0
  0
VERTEX
  8
CSLAYER3
  6
CONTINUOUS
 62
     3
 10
4620.177433
 20
3259.142820
 30
0.0
  0
VERTEX
  8
CSLAYER3
  6
CONTINUOUS
 62
     3
 10
4621.069836
 20
3254.158084
 30
0.0
  0
VERTEX
  8
CSLAYER3
  6
CONTINUOUS
 62
     3
 10
4622.043723
 20
3249.590415
 30
0.0
  0
VERTEX
  8
CSLAYER3
  6
CONTINUOUS
 62
     3
 10
4623.091681
 20
3245.474576
 30
0.0
  0
VERTEX
  8
CSLAYER3
  6
CONTINUOUS
 62
     3
 10
4624.205736
 20
3241.841891
 30
0.0
  0
VERTEX
  8
CSLAYER3
  6
CONTINUOUS
 62
     3
 10
4625.377410
 20
3238.720006
 30
0.0
  0
VERTEX
  8
CSLAYER3
  6
CONTINUOUS
 62
     3
 10
4626.597783
 20
3236.132682
 30
0.0
  0
VERTEX
  8
CSLAYER3
  6
CONTINUOUS
 62
     3
 10
4627.857570
 20
3234.099608
 30
0.0
  0
VERTEX
  8
CSLAYER3
  6
CONTINUOUS
 62
     3
 10
4629.147182
 20
3232.636259
 30
0.0
  0
VERTEX
  8
CSLAYER3
  6
CONTINUOUS
 62
     3
 10
4630.456804
 20
3231.753771
 30
0.0
  0
VERTEX
  8
CSLAYER3
  6
CONTINUOUS
 62
     3
 10
4631.776470
 20
3231.458860
 30
0.0
  0
VERTEX
  8
CSLAYER3
  6
CONTINUOUS
 62
     3
 10
4633.096136
 20
3231.753771
 30
0.0
  0
VERTEX
  8
CSLAYER3
  6
CONTINUOUS
 62
     3
 10
4634.405758
 20
3232.636259
 30
0.0
  0
VERTEX
  8
CSLAYER3
  6
CONTINUOUS
 62
     3
 10
4635.695370
 20
3234.099608
 30
0.0
  0
VERTEX
  8
CSLAYER3
  6
CONTINUOUS
 62
     3
 10
4636.955157
 20
3236.132682
 30
0.0
  0
VERTEX
  8
CSLAYER3
  6
CONTINUOUS
 62
     3
 10
4638.175531
 20
3238.720006
 30
0.0
  0
VERTEX
  8
CSLAYER3
  6
CONTINUOUS
 62
     3
 10
4639.347204
 20
3241.841891
 30
0.0
  0
VERTEX
  8
CSLAYER3
  6
CONTINUOUS
 62
     3
 10
4640.461259
 20
3245.474576
 30
0.0
  0
VERTEX
  8
CSLAYER3
  6
CONTINUOUS
 62
     3
 10
4641.509218
 20
3249.590415
 30
0.0
  0
VERTEX
  8
CSLAYER3
  6
CONTINUOUS
 62
     3
 10
4642.483104
 20
3254.158084
 30
0.0
  0
VERTEX
  8
CSLAYER3
  6
CONTINUOUS
 62
     3
 10
4643.375507
 20
3259.142820
 30
0.0
  0
VERTEX
  8
CSLAYER3
  6
CONTINUOUS
 62
     3
 10
4644.179634
 20
3264.506686
 30
0.0
  0
VERTEX
  8
CSLAYER3
  6
CONTINUOUS
 62
     3
 10
4644.889365
 20
3270.208860
 30
0.0
  0
VERTEX
  8
CSLAYER3
  6
CONTINUOUS
 62
     3
 10
4645.499300
 20
3276.205944
 30
0.0
  0
VERTEX
  8
CSLAYER3
  6
CONTINUOUS
 62
     3
 10
4646.004795
 20
3282.452299
 30
0.0
  0
VERTEX
  8
CSLAYER3
  6
CONTINUOUS
 62
     3
 10
4646.402004
 20
3288.900384
 30
0.0
  0
VERTEX
  8
CSLAYER3
  6
CONTINUOUS
 62
     3
 10
4646.687904
 20
3295.501126
 30
0.0
  0
VERTEX
  8
CSLAYER3
  6
CONTINUOUS
 62
     3
 10
4646.860319
 20
3302.204290
 30
0.0
  0
VERTEX
  8
CSLAYER3
  6
CONTINUOUS
 62
     3
 10
4646.917937
 20
3308.958860
 30
0.0
  0
VERTEX
  8
CSLAYER3
  6
CONTINUOUS
 62
     3
 10
4646.860319
 20
3315.713430
 30
0.0
  0
VERTEX
  8
CSLAYER3
  6
CONTINUOUS
 62
     3
 10
4646.687904
 20
3322.416593
 30
0.0
  0
VERTEX
  8
CSLAYER3
  6
CONTINUOUS
 62
     3
 10
4646.402004
 20
3329.017336
 30
0.0
  0
VERTEX
  8
CSLAYER3
  6
CONTINUOUS
 62
     3
 10
4646.004795
 20
3335.465421
 30
0.0
  0
VERTEX
  8
CSLAYER3
  6
CONTINUOUS
 62
     3
 10
4645.499300
 20
3341.711775
 30
0.0
  0
VERTEX
  8
CSLAYER3
  6
CONTINUOUS
 62
     3
 10
4644.889365
 20
3347.708860
 30
0.0
  0
VERTEX
  8
CSLAYER3
  6
CONTINUOUS
 62
     3
 10
4644.179634
 20
3353.411033
 30
0.0
  0
VERTEX
  8
CSLAYER3
  6
CONTINUOUS
 62
     3
 10
4643.375507
 20
3358.774899
 30
0.0
  0
VERTEX
  8
CSLAYER3
  6
CONTINUOUS
 62
     3
 10
4642.483104
 20
3363.759635
 30
0.0
  0
VERTEX
  8
CSLAYER3
  6
CONTINUOUS
 62
     3
 10
4641.509218
 20
3368.327304
 30
0.0
  0
VERTEX
  8
CSLAYER3
  6
CONTINUOUS
 62
     3
 10
4640.461259
 20
3372.443143
 30
0.0
  0
VERTEX
  8
CSLAYER3
  6
CONTINUOUS
 62
     3
 10
4639.347204
 20
3376.075828
 30
0.0
  0
VERTEX
  8
CSLAYER3
  6
CONTINUOUS
 62
     3
 10
4638.175531
 20
3379.197713
 30
0.0
  0
VERTEX
  8
CSLAYER3
  6
CONTINUOUS
 62
     3
 10
4636.955157
 20
3381.785038
 30
0.0
  0
VERTEX
  8
CSLAYER3
  6
CONTINUOUS
 62
     3
 10
4635.695370
 20
3383.818111
 30
0.0
  0
VERTEX
  8
CSLAYER3
  6
CONTINUOUS
 62
     3
 10
4634.405758
 20
3385.281461
 30
0.0
  0
VERTEX
  8
CSLAYER3
  6
CONTINUOUS
 62
     3
 10
4633.096136
 20
3386.163949
 30
0.0
  0
VERTEX
  8
CSLAYER3
  6
CONTINUOUS
 62
     3
 10
4631.776470
 20
3386.458860
 30
0.0
  0
SEQEND
  0
POLYLINE
  8
CSLAYER3
  6
CONTINUOUS
 62
     3
 66
     1
 10
0.0
 20
0.0
 30
0.0
  0
VERTEX
  8
CSLAYER3
  6
CONTINUOUS
 62
     3
 10
4644.538124
 20
3296.958860
 30
0.0
  0
VERTEX
  8
CSLAYER3
  6
CONTINUOUS
 62
     3
 10
4644.702705
 20
3297.004523
 30
0.0
  0
VERTEX
  8
CSLAYER3
  6
CONTINUOUS
 62
     3
 10
4644.866034
 20
3297.141167
 30
0.0
  0
VERTEX
  8
CSLAYER3
  6
CONTINUOUS
 62
     3
 10
4645.026867
 20
3297.367750
 30
0.0
  0
VERTEX
  8
CSLAYER3
  6
CONTINUOUS
 62
     3
 10
4645.183981
 20
3297.682548
 30
0.0
  0
VERTEX
  8
CSLAYER3
  6
CONTINUOUS
 62
     3
 10
4645.336179
 20
3298.083166
 30
0.0
  0
VERTEX
  8
CSLAYER3
  6
CONTINUOUS
 62
     3
 10
4645.482304
 20
3298.566555
 30
0.0
  0
VERTEX
  8
CSLAYER3
  6
CONTINUOUS
 62
     3
 10
4645.621243
 20
3299.129035
 30
0.0
  0
VERTEX
  8
CSLAYER3
  6
CONTINUOUS
 62
     3
 10
4645.751938
 20
3299.766326
 30
0.0
  0
VERTEX
  8
CSLAYER3
  6
CONTINUOUS
 62
     3
 10
4645.873396
 20
3300.473578
 30
0.0
  0
VERTEX
  8
CSLAYER3
  6
CONTINUOUS
 62
     3
 10
4645.984692
 20
3301.245408
 30
0.0
  0
VERTEX
  8
CSLAYER3
  6
CONTINUOUS
 62
     3
 10
4646.084978
 20
3302.075942
 30
0.0
  0
VERTEX
  8
CSLAYER3
  6
CONTINUOUS
 62
     3
 10
4646.173492
 20
3302.958860
 30
0.0
  0
VERTEX
  8
CSLAYER3
  6
CONTINUOUS
 62
     3
 10
4646.249559
 20
3303.887441
 30
0.0
  0
VERTEX
  8
CSLAYER3
  6
CONTINUOUS
 62
     3
 10
4646.312602
 20
3304.854618
 30
0.0
  0
VERTEX
  8
CSLAYER3
  6
CONTINUOUS
 62
     3
 10
4646.362140
 20
3305.853031
 30
0.0
  0
VERTEX
  8
CSLAYER3
  6
CONTINUOUS
 62
     3
 10
4646.397796
 20
3306.875082
 30
0.0
  0
VERTEX
  8
CSLAYER3
  6
CONTINUOUS
 62
     3
 10
4646.419298
 20
3307.912991
 30
0.0
  0
VERTEX
  8
CSLAYER3
  6
CONTINUOUS
 62
     3
 10
4646.426484
 20
3308.958860
 30
0.0
  0
VERTEX
  8
CSLAYER3
  6
CONTINUOUS
 62
     3
 10
4646.419298
 20
3310.004729
 30
0.0
  0
VERTEX
  8
CSLAYER3
  6
CONTINUOUS
 62
     3
 10
4646.397796
 20
3311.042638
 30
0.0
  0
VERTEX
  8
CSLAYER3
  6
CONTINUOUS
 62
     3
 10
4646.362140
 20
3312.064688
 30
0.0
  0
VERTEX
  8
CSLAYER3
  6
CONTINUOUS
 62
     3
 10
4646.312602
 20
3313.063101
 30
0.0
  0
VERTEX
  8
CSLAYER3
  6
CONTINUOUS
 62
     3
 10
4646.249559
 20
3314.030279
 30
0.0
  0
VERTEX
  8
CSLAYER3
  6
CONTINUOUS
 62
     3
 10
4646.173492
 20
3314.958860
 30
0.0
  0
VERTEX
  8
CSLAYER3
  6
CONTINUOUS
 62
     3
 10
4646.084978
 20
3315.841777
 30
0.0
  0
VERTEX
  8
CSLAYER3
  6
CONTINUOUS
 62
     3
 10
4645.984692
 20
3316.672311
 30
0.0
  0
VERTEX
  8
CSLAYER3
  6
CONTINUOUS
 62
     3
 10
4645.873396
 20
3317.444141
 30
0.0
  0
VERTEX
  8
CSLAYER3
  6
CONTINUOUS
 62
     3
 10
4645.751938
 20
3318.151393
 30
0.0
  0
VERTEX
  8
CSLAYER3
  6
CONTINUOUS
 62
     3
 10
4645.621243
 20
3318.788684
 30
0.0
  0
VERTEX
  8
CSLAYER3
  6
CONTINUOUS
 62
     3
 10
4645.482304
 20
3319.351165
 30
0.0
  0
VERTEX
  8
CSLAYER3
  6
CONTINUOUS
 62
     3
 10
4645.336179
 20
3319.834553
 30
0.0
  0
VERTEX
  8
CSLAYER3
  6
CONTINUOUS
 62
     3
 10
4645.183981
 20
3320.235171
 30
0.0
  0
VERTEX
  8
CSLAYER3
  6
CONTINUOUS
 62
     3
 10
4645.026867
 20
3320.549970
 30
0.0
  0
VERTEX
  8
CSLAYER3
  6
CONTINUOUS
 62
     3
 10
4644.866034
 20
3320.776553
 30
0.0
  0
VERTEX
  8
CSLAYER3
  6
CONTINUOUS
 62
     3
 10
4644.702705
 20
3320.913196
 30
0.0
  0
VERTEX
  8
CSLAYER3
  6
CONTINUOUS
 62
     3
 10
4644.538124
 20
3320.958860
 30
0.0
  0
VERTEX
  8
CSLAYER3
  6
CONTINUOUS
 62
     3
 10
4644.373542
 20
3320.913196
 30
0.0
  0
VERTEX
  8
CSLAYER3
  6
CONTINUOUS
 62
     3
 10
4644.210213
 20
3320.776553
 30
0.0
  0
VERTEX
  8
CSLAYER3
  6
CONTINUOUS
 62
     3
 10
4644.049380
 20
3320.549970
 30
0.0
  0
VERTEX
  8
CSLAYER3
  6
CONTINUOUS
 62
     3
 10
4643.892266
 20
3320.235171
 30
0.0
  0
VERTEX
  8
CSLAYER3
  6
CONTINUOUS
 62
     3
 10
4643.740068
 20
3319.834553
 30
0.0
  0
VERTEX
  8
CSLAYER3
  6
CONTINUOUS
 62
     3
 10
4643.593944
 20
3319.351165
 30
0.0
  0
VERTEX
  8
CSLAYER3
  6
CONTINUOUS
 62
     3
 10
4643.455005
 20
3318.788684
 30
0.0
  0
VERTEX
  8
CSLAYER3
  6
CONTINUOUS
 62
     3
 10
4643.324309
 20
3318.151393
 30
0.0
  0
VERTEX
  8
CSLAYER3
  6
CONTINUOUS
 62
     3
 10
4643.202851
 20
3317.444141
 30
0.0
  0
VERTEX
  8
CSLAYER3
  6
CONTINUOUS
 62
     3
 10
4643.091556
 20
3316.672311
 30
0.0
  0
VERTEX
  8
CSLAYER3
  6
CONTINUOUS
 62
     3
 10
4642.991269
 20
3315.841777
 30
0.0
  0
VERTEX
  8
CSLAYER3
  6
CONTINUOUS
 62
     3
 10
4642.902756
 20
3314.958860
 30
0.0
  0
VERTEX
  8
CSLAYER3
  6
CONTINUOUS
 62
     3
 10
4642.826688
 20
3314.030279
 30
0.0
  0
VERTEX
  8
CSLAYER3
  6
CONTINUOUS
 62
     3
 10
4642.763645
 20
3313.063101
 30
0.0
  0
VERTEX
  8
CSLAYER3
  6
CONTINUOUS
 62
     3
 10
4642.714108
 20
3312.064688
 30
0.0
  0
VERTEX
  8
CSLAYER3
  6
CONTINUOUS
 62
     3
 10
4642.678452
 20
3311.042638
 30
0.0
  0
VERTEX
  8
CSLAYER3
  6
CONTINUOUS
 62
     3
 10
4642.656949
 20
3310.004729
 30
0.0
  0
VERTEX
  8
CSLAYER3
  6
CONTINUOUS
 62
     3
 10
4642.649763
 20
3308.958860
 30
0.0
  0
VERTEX
  8
CSLAYER3
  6
CONTINUOUS
 62
     3
 10
4642.656949
 20
3307.912991
 30
0.0
  0
VERTEX
  8
CSLAYER3
  6
CONTINUOUS
 62
     3
 10
4642.678452
 20
3306.875082
 30
0.0
  0
VERTEX
  8
CSLAYER3
  6
CONTINUOUS
 62
     3
 10
4642.714108
 20
3305.853031
 30
0.0
  0
VERTEX
  8
CSLAYER3
  6
CONTINUOUS
 62
     3
 10
4642.763645
 20
3304.854618
 30
0.0
  0
VERTEX
  8
CSLAYER3
  6
CONTINUOUS
 62
     3
 10
4642.826688
 20
3303.887441
 30
0.0
  0
VERTEX
  8
CSLAYER3
  6
CONTINUOUS
 62
     3
 10
4642.902756
 20
3302.958860
 30
0.0
  0
VERTEX
  8
CSLAYER3
  6
CONTINUOUS
 62
     3
 10
4642.991269
 20
3302.075942
 30
0.0
  0
VERTEX
  8
CSLAYER3
  6
CONTINUOUS
 62
     3
 10
4643.091556
 20
3301.245408
 30
0.0
  0
VERTEX
  8
CSLAYER3
  6
CONTINUOUS
 62
     3
 10
4643.202851
 20
3300.473578
 30
0.0
  0
VERTEX
  8
CSLAYER3
  6
CONTINUOUS
 62
     3
 10
4643.324309
 20
3299.766326
 30
0.0
  0
VERTEX
  8
CSLAYER3
  6
CONTINUOUS
 62
     3
 10
4643.455005
 20
3299.129035
 30
0.0
  0
VERTEX
  8
CSLAYER3
  6
CONTINUOUS
 62
     3
 10
4643.593944
 20
3298.566555
 30
0.0
  0
VERTEX
  8
CSLAYER3
  6
CONTINUOUS
 62
     3
 10
4643.740068
 20
3298.083166
 30
0.0
  0
VERTEX
  8
CSLAYER3
  6
CONTINUOUS
 62
     3
 10
4643.892266
 20
3297.682548
 30
0.0
  0
VERTEX
  8
CSLAYER3
  6
CONTINUOUS
 62
     3
 10
4644.049380
 20
3297.367750
 30
0.0
  0
VERTEX
  8
CSLAYER3
  6
CONTINUOUS
 62
     3
 10
4644.210213
 20
3297.141167
 30
0.0
  0
VERTEX
  8
CSLAYER3
  6
CONTINUOUS
 62
     3
 10
4644.373542
 20
3297.004523
 30
0.0
  0
VERTEX
  8
CSLAYER3
  6
CONTINUOUS
 62
     3
 10
4644.538124
 20
3296.958860
 30
0.0
  0
SEQEND
  0
POLYLINE
  8
CSLAYER3
  6
CONTINUOUS
 62
     3
 66
     1
 10
0.0
 20
0.0
 30
0.0
  0
VERTEX
  8
CSLAYER3
  6
CONTINUOUS
 62
     3
 10
4651.489898
 20
3296.958873
 30
0.0
  0
VERTEX
  8
CSLAYER3
  6
CONTINUOUS
 62
     3
 10
4651.654469
 20
3297.006070
 30
0.0
  0
VERTEX
  8
CSLAYER3
  6
CONTINUOUS
 62
     3
 10
4651.817766
 20
3297.144235
 30
0.0
  0
VERTEX
  8
CSLAYER3
  6
CONTINUOUS
 62
     3
 10
4651.978547
 20
3297.372316
 30
0.0
  0
VERTEX
  8
CSLAYER3
  6
CONTINUOUS
 62
     3
 10
4652.135588
 20
3297.688578
 30
0.0
  0
VERTEX
  8
CSLAYER3
  6
CONTINUOUS
 62
     3
 10
4652.287694
 20
3298.090614
 30
0.0
  0
VERTEX
  8
CSLAYER3
  6
CONTINUOUS
 62
     3
 10
4652.433707
 20
3298.575364
 30
0.0
  0
VERTEX
  8
CSLAYER3
  6
CONTINUOUS
 62
     3
 10
4652.572516
 20
3299.139138
 30
0.0
  0
VERTEX
  8
CSLAYER3
  6
CONTINUOUS
 62
     3
 10
4652.703064
 20
3299.777646
 30
0.0
  0
VERTEX
  8
CSLAYER3
  6
CONTINUOUS
 62
     3
 10
4652.824358
 20
3300.486029
 30
0.0
  0
VERTEX
  8
CSLAYER3
  6
CONTINUOUS
 62
     3
 10
4652.935476
 20
3301.258896
 30
0.0
  0
VERTEX
  8
CSLAYER3
  6
CONTINUOUS
 62
     3
 10
4653.035570
 20
3302.090363
 30
0.0
  0
VERTEX
  8
CSLAYER3
  6
CONTINUOUS
 62
     3
 10
4653.123880
 20
3302.974104
 30
0.0
  0
VERTEX
  8
CSLAYER3
  6
CONTINUOUS
 62
     3
 10
4653.199734
 20
3303.903393
 30
0.0
  0
VERTEX
  8
CSLAYER3
  6
CONTINUOUS
 62
     3
 10
4653.262553
 20
3304.871157
 30
0.0
  0
VERTEX
  8
CSLAYER3
  6
CONTINUOUS
 62
     3
 10
4653.311860
 20
3305.870030
 30
0.0
  0
VERTEX
  8
CSLAYER3
  6
CONTINUOUS
 62
     3
 10
4653.347280
 20
3306.892412
 30
0.0
  0
VERTEX
  8
CSLAYER3
  6
CONTINUOUS
 62
     3
 10
4653.368543
 20
3307.930520
 30
0.0
  0
VERTEX
  8
CSLAYER3
  6
CONTINUOUS
 62
     3
 10
4653.375488
 20
3308.976455
 30
0.0
  0
VERTEX
  8
CSLAYER3
  6
CONTINUOUS
 62
     3
 10
4653.368061
 20
3310.022256
 30
0.0
  0
VERTEX
  8
CSLAYER3
  6
CONTINUOUS
 62
     3
 10
4653.346319
 20
3311.059964
 30
0.0
  0
VERTEX
  8
CSLAYER3
  6
CONTINUOUS
 62
     3
 10
4653.310427
 20
3312.081681
 30
0.0
  0
VERTEX
  8
CSLAYER3
  6
CONTINUOUS
 62
     3
 10
4653.260659
 20
3313.079631
 30
0.0
  0
VERTEX
  8
CSLAYER3
  6
CONTINUOUS
 62
     3
 10
4653.197393
 20
3314.046220
 30
0.0
  0
VERTEX
  8
CSLAYER3
  6
CONTINUOUS
 62
     3
 10
4653.121111
 20
3314.974091
 30
0.0
  0
VERTEX
  8
CSLAYER3
  6
CONTINUOUS
 62
     3
 10
4653.032394
 20
3315.856183
 30
0.0
  0
VERTEX
  8
CSLAYER3
  6
CONTINUOUS
 62
     3
 10
4652.931916
 20
3316.685782
 30
0.0
  0
VERTEX
  8
CSLAYER3
  6
CONTINUOUS
 62
     3
 10
4652.820443
 20
3317.456574
 30
0.0
  0
VERTEX
  8
CSLAYER3
  6
CONTINUOUS
 62
     3
 10
4652.698822
 20
3318.162693
 30
0.0
  0
VERTEX
  8
CSLAYER3
  6
CONTINUOUS
 62
     3
 10
4652.567979
 20
3318.798766
 30
0.0
  0
VERTEX
  8
CSLAYER3
  6
CONTINUOUS
 62
     3
 10
4652.428911
 20
3319.359951
 30
0.0
  0
VERTEX
  8
CSLAYER3
  6
CONTINUOUS
 62
     3
 10
4652.282675
 20
3319.841978
 30
0.0
  0
VERTEX
  8
CSLAYER3
  6
CONTINUOUS
 62
     3
 10
4652.130384
 20
3320.241177
 30
0.0
  0
VERTEX
  8
CSLAYER3
  6
CONTINUOUS
 62
     3
 10
4651.973198
 20
3320.554511
 30
0.0
  0
VERTEX
  8
CSLAYER3
  6
CONTINUOUS
 62
     3
 10
4651.812313
 20
3320.779595
 30
0.0
  0
VERTEX
  8
CSLAYER3
  6
CONTINUOUS
 62
     3
 10
4651.648952
 20
3320.914717
 30
0.0
  0
VERTEX
  8
CSLAYER3
  6
CONTINUOUS
 62
     3
 10
4651.489898
 20
3320.958847
 30
0.0
  0
SEQEND
  0
LINE
  8
CSLAYER3
  6
CONTINUOUS
 62
     3
 10
4644.538124
 20
3320.958860
 11
4651.489898
 21
3320.958860
  0
LINE
  8
CSLAYER3
  6
CONTINUOUS
 62
     3
 10
4644.538124
 20
3296.958860
 11
4651.489898
 21
3296.958860
  0
ENDBLK
  8
0
  0
BLOCK
  8
CSLAYER1
  2
BLKF0012
 70
   64
 10
0.0
 20
0.0
 30
0.0
  0
LINE
  8
CSLAYER3
  6
CONTINUOUS
 62
     3
 10
4655.528619
 20
3320.215715
 11
4676.576602
 21
3320.215715
  0
LINE
  8
CSLAYER3
  6
CONTINUOUS
 62
     3
 10
4676.576602
 20
3320.215715
 11
4694.084127
 21
3319.368577
  0
LINE
  8
CSLAYER3
  6
CONTINUOUS
 62
     3
 10
4694.084127
 20
3319.368577
 11
4720.910173
 21
3316.262403
  0
LINE
  8
CSLAYER3
  6
CONTINUOUS
 62
     3
 10
4720.910173
 20
3316.262403
 11
4728.060108
 21
3308.931568
  0
LINE
  8
CSLAYER3
  6
CONTINUOUS
 62
     3
 10
4655.528619
 20
3297.702004
 11
4676.576602
 21
3297.702004
  0
LINE
  8
CSLAYER3
  6
CONTINUOUS
 62
     3
 10
4676.576602
 20
3297.702004
 11
4694.084127
 21
3298.549143
  0
LINE
  8
CSLAYER3
  6
CONTINUOUS
 62
     3
 10
4694.084127
 20
3298.549143
 11
4720.910173
 21
3301.655316
  0
LINE
  8
CSLAYER3
  6
CONTINUOUS
 62
     3
 10
4720.910173
 20
3301.655316
 11
4728.060108
 21
3308.986151
  0
ENDBLK
  8
0
  0
ENDSEC
  0
SECTION
  2
ENTITIES
  0
LINE
  8
CSLAYER3
  6
CONTINUOUS
 62
     3
 10
4655.528619
 20
3679.122281
 11
4655.528619
 21
2938.795438
  0
LINE
  8
CSLAYER3
  6
CONTINUOUS
 62
     3
 10
4810.528619
 20
3681.197565
 11
4810.528619
 21
2936.720154
  0
INSERT
  8
CSLAYER1
  2
BLKF0000
 10
0.0
 20
0.0
 30
0.0
  0
INSERT
  8
CSLAYER1
  2
BLKF0001
 10
0.0
 20
0.0
 30
0.0
  0
LINE
  8
CSLAYER3
  6
CONTINUOUS
 62
     3
 10
4655.528619
 20
2672.265226
 11
4636.348120
 21
2631.448633
  0
LINE
  8
CSLAYER3
  6
CONTINUOUS
 62
     3
 10
5055.528619
 20
3195.160499
 11
5055.528619
 21
3422.757221
  0
LINE
  8
CSLAYER3
  6
CONTINUOUS
 62
     3
 10
5125.528619
 20
3175.245785
 11
5175.528619
 21
3175.245785
  0
LINE
  8
CSLAYER3
  6
CONTINUOUS
 62
     3
 10
4471.348120
 20
3298.958860
 11
4471.348120
 21
3318.958860
  0
LINE
  8
CSLAYER3
  6
CONTINUOUS
 62
     3
 10
5175.528619
 20
2786.777368
 11
5175.528619
 21
2701.433756
  0
LINE
  8
CSLAYER3
  6
CONTINUOUS
 62
     3
 10
5125.528619
 20
3442.671934
 11
5175.528619
 21
3442.671934
  0
LINE
  8
CSLAYER3
  6
CONTINUOUS
 62
     3
 10
5125.528619
 20
3175.245785
 11
5125.528619
 21
3442.671934
  0
LINE
  8
CSLAYER3
  6
CONTINUOUS
 62
     3
 10
5175.528619
 20
3175.245785
 11
5175.528619
 21
3442.671934
  0
LINE
  8
CSLAYER3
  6
CONTINUOUS
 62
     3
 10
5041.266004
 20
2672.053871
 11
5071.073630
 21
2776.984795
  0
LINE
  8
CSLAYER3
  6
CONTINUOUS
 62
     3
 10
5175.528619
 20
2786.777368
 11
5125.528619
 21
2786.787444
  0
LINE
  8
CSLAYER3
  6
CONTINUOUS
 62
     3
 10
5041.266004
 20
2666.053746
 11
5054.719679
 21
2623.562108
  0
LINE
  8
CSLAYER3
  6
CONTINUOUS
 62
     3
 10
5125.528619
 20
2786.777368
 11
5125.528619
 21
2662.265226
  0
INSERT
  8
CSLAYER1
  2
BLKF0002
 10
0.0
 20
0.0
 30
0.0
  0
LINE
  8
CSLAYER3
  6
CONTINUOUS
 62
     3
 10
4762.334526
 20
2577.914372
 11
4816.468472
 21
2672.265226
  0
LINE
  8
CSLAYER3
  6
CONTINUOUS
 62
     3
 10
4810.528619
 20
2672.265226
 11
5125.528619
 21
2672.265226
  0
LINE
  8
CSLAYER3
  6
CONTINUOUS
 62
     3
 10
4655.528619
 20
3288.958860
 11
4481.348120
 21
3288.958860
  0
LINE
  8
CSLAYER3
  6
CONTINUOUS
 62
     3
 10
4655.528619
 20
3328.958860
 11
4481.348120
 21
3328.958860
  0
LINE
  8
CSLAYER3
  6
CONTINUOUS
 62
     3
 10
4700.528619
 20
2698.409933
 11
4700.528619
 21
2645.570475
  0
INSERT
  8
CSLAYER1
  2
BLKF0003
 10
0.0
 20
0.0
 30
0.0
  0
LINE
  8
CSLAYER3
  6
CONTINUOUS
 62
     3
 10
5125.528619
 20
2614.654105
 11
5054.719679
 21
2623.562108
  0
LINE
  8
CSLAYER3
  6
CONTINUOUS
 62
     3
 10
5125.528619
 20
2614.654105
 11
5175.528619
 21
2614.654105
  0
LINE
  8
CSLAYER3
  6
CONTINUOUS
 62
     3
 10
5071.073630
 20
2776.984795
 11
5125.528619
 21
2786.777368
  0
LINE
  8
CSLAYER3
  6
CONTINUOUS
 62
     3
 10
5125.528619
 20
3442.671934
 11
5055.528619
 21
3422.757221
  0
LINE
  8
CSLAYER3
  6
CONTINUOUS
 62
     3
 10
5125.528619
 20
3175.245785
 11
5055.528619
 21
3195.160499
  0
LINE
  8
CSLAYER3
  6
CONTINUOUS
 62
     3
 10
4655.528619
 20
3108.958860
 11
4810.528619
 21
3108.958860
  0
LINE
  8
CSLAYER3
  6
CONTINUOUS
 62
     3
 10
4655.528619
 20
3508.958860
 11
4810.528619
 21
3508.958860
  0
LINE
  8
CSLAYER3
  6
CONTINUOUS
 62
     3
 10
4658.551167
 20
2936.720154
 11
4810.528619
 21
2936.720154
  0
INSERT
  8
CSLAYER1
  2
BLKF0004
 10
0.0
 20
0.0
 30
0.0
  0
LINE
  8
CSLAYER3
  6
CONTINUOUS
 62
     3
 10
4652.565275
 20
2701.099825
 11
4655.528619
 21
2677.055154
  0
LINE
  8
CSLAYER3
  6
CONTINUOUS
 62
     3
 10
4655.264919
 20
2723.343030
 11
4701.798964
 21
2716.645703
  0
LINE
  8
CSLAYER3
  6
CONTINUOUS
 62
     3
 10
4701.798964
 20
2716.645703
 11
4735.752451
 21
2688.739155
  0
INSERT
  8
CSLAYER1
  2
BLKF0005
 10
0.0
 20
0.0
 30
0.0
  0
LINE
  8
CSLAYER3
  6
CONTINUOUS
 62
     3
 10
4949.653266
 20
2891.833759
 11
4946.540059
 21
2892.130255
  0
LINE
  8
CSLAYER3
  6
CONTINUOUS
 62
     3
 10
4946.540059
 20
2892.130255
 11
4943.871595
 21
2891.537263
  0
LINE
  8
CSLAYER3
  6
CONTINUOUS
 62
     3
 10
4943.871595
 20
2891.537263
 11
4941.647876
 21
2891.389015
  0
LINE
  8
CSLAYER3
  6
CONTINUOUS
 62
     3
 10
4941.647876
 20
2891.389015
 11
4938.238172
 21
2891.240767
  0
LINE
  8
CSLAYER3
  6
CONTINUOUS
 62
     3
 10
4940.176377
 20
2893.008762
 11
4941.406286
 21
2894.633999
  0
LINE
  8
CSLAYER3
  6
CONTINUOUS
 62
     3
 10
4941.406286
 20
2894.633999
 11
4941.801614
 21
2896.127460
  0
LINE
  8
CSLAYER3
  6
CONTINUOUS
 62
     3
 10
4941.801614
 20
2896.127460
 11
4942.169489
 21
2918.952158
  0
LINE
  8
CSLAYER3
  6
CONTINUOUS
 62
     3
 10
4942.169489
 20
2918.952158
 11
4942.070657
 21
2925.540957
  0
LINE
  8
CSLAYER3
  6
CONTINUOUS
 62
     3
 10
4942.070657
 20
2925.540957
 11
4941.675329
 21
2928.176476
  0
LINE
  8
CSLAYER3
  6
CONTINUOUS
 62
     3
 10
4941.675329
 20
2928.176476
 11
4940.687009
 21
2930.350780
  0
LINE
  8
CSLAYER3
  6
CONTINUOUS
 62
     3
 10
4940.687009
 20
2930.350780
 11
4938.842145
 21
2931.997980
  0
LINE
  8
CSLAYER3
  6
CONTINUOUS
 62
     3
 10
4938.842145
 20
2931.997980
 11
4939.962241
 21
2932.920412
  0
LINE
  8
CSLAYER3
  6
CONTINUOUS
 62
     3
 10
4939.962241
 20
2932.920412
 11
4943.190753
 21
2932.722748
  0
LINE
  8
CSLAYER3
  6
CONTINUOUS
 62
     3
 10
4943.190753
 20
2932.722748
 11
4945.035616
 21
2933.315740
  0
LINE
  8
CSLAYER3
  6
CONTINUOUS
 62
     3
 10
4945.035616
 20
2933.315740
 11
4947.341696
 21
2934.831163
  0
LINE
  8
CSLAYER3
  6
CONTINUOUS
 62
     3
 10
4947.341696
 20
2934.831163
 11
4947.539360
 21
2933.908732
  0
LINE
  8
CSLAYER3
  6
CONTINUOUS
 62
     3
 10
4947.539360
 20
2933.908732
 11
4946.814592
 21
2931.404988
  0
LINE
  8
CSLAYER3
  6
CONTINUOUS
 62
     3
 10
4946.814592
 20
2931.404988
 11
4948.132352
 21
2925.804509
  0
LINE
  8
CSLAYER3
  6
CONTINUOUS
 62
     3
 10
4948.132352
 20
2925.804509
 11
4949.911328
 21
2920.797022
  0
LINE
  8
CSLAYER3
  6
CONTINUOUS
 62
     3
 10
4949.911328
 20
2920.797022
 11
4952.019743
 21
2917.107294
  0
LINE
  8
CSLAYER3
  6
CONTINUOUS
 62
     3
 10
4952.019743
 20
2917.107294
 11
4953.930495
 21
2913.088127
  0
LINE
  8
CSLAYER3
  6
CONTINUOUS
 62
     3
 10
4953.930495
 20
2913.088127
 11
4953.996383
 21
2926.792829
  0
LINE
  8
CSLAYER3
  6
CONTINUOUS
 62
     3
 10
4953.996383
 20
2926.792829
 11
4953.375938
 21
2936.048261
  0
LINE
  8
CSLAYER3
  6
CONTINUOUS
 62
     3
 10
4953.375938
 20
2936.048261
 11
4952.387618
 21
2940.298036
  0
LINE
  8
CSLAYER3
  6
CONTINUOUS
 62
     3
 10
4952.387618
 20
2940.298036
 11
4951.399298
 21
2942.274676
  0
LINE
  8
CSLAYER3
  6
CONTINUOUS
 62
     3
 10
4951.399298
 20
2942.274676
 11
4949.620322
 21
2943.361828
  0
LINE
  8
CSLAYER3
  6
CONTINUOUS
 62
     3
 10
4949.620322
 20
2943.361828
 11
4949.916818
 21
2944.448980
  0
LINE
  8
CSLAYER3
  6
CONTINUOUS
 62
     3
 10
4949.916818
 20
2944.448980
 11
4953.474770
 21
2942.966500
  0
LINE
  8
CSLAYER3
  6
CONTINUOUS
 62
     3
 10
4953.474770
 20
2942.966500
 11
4956.637393
 21
2942.670004
  0
LINE
  8
CSLAYER3
  6
CONTINUOUS
 62
     3
 10
4956.637393
 20
2942.670004
 11
4958.910529
 21
2940.989860
  0
LINE
  8
CSLAYER3
  6
CONTINUOUS
 62
     3
 10
4958.910529
 20
2940.989860
 11
4957.823377
 21
2939.309717
  0
LINE
  8
CSLAYER3
  6
CONTINUOUS
 62
     3
 10
4957.823377
 20
2939.309717
 11
4956.933889
 21
2936.937749
  0
LINE
  8
CSLAYER3
  6
CONTINUOUS
 62
     3
 10
4956.933889
 20
2936.937749
 11
4956.538561
 21
2929.723014
  0
LINE
  8
CSLAYER3
  6
CONTINUOUS
 62
     3
 10
4956.538561
 20
2929.723014
 11
4956.439729
 21
2917.270184
  0
LINE
  8
CSLAYER3
  6
CONTINUOUS
 62
     3
 10
4956.439729
 20
2917.270184
 11
4956.637393
 21
2909.067129
  0
LINE
  8
CSLAYER3
  6
CONTINUOUS
 62
     3
 10
4956.637393
 20
2909.067129
 11
4956.958597
 21
2902.503038
  0
LINE
  8
CSLAYER3
  6
CONTINUOUS
 62
     3
 10
4956.958597
 20
2902.503038
 11
4957.156261
 21
2899.735742
  0
LINE
  8
CSLAYER3
  6
CONTINUOUS
 62
     3
 10
4957.156261
 20
2899.735742
 11
4958.012805
 21
2897.561439
  0
LINE
  8
CSLAYER3
  6
CONTINUOUS
 62
     3
 10
4958.012805
 20
2897.561439
 11
4959.396453
 21
2896.046015
  0
LINE
  8
CSLAYER3
  6
CONTINUOUS
 62
     3
 10
4959.396453
 20
2896.046015
 11
4960.450661
 21
2895.123583
  0
LINE
  8
CSLAYER3
  6
CONTINUOUS
 62
     3
 10
4960.450661
 20
2895.123583
 11
4960.252997
 21
2894.398815
  0
LINE
  8
CSLAYER3
  6
CONTINUOUS
 62
     3
 10
4960.252997
 20
2894.398815
 11
4949.579142
 21
2894.464703
  0
LINE
  8
CSLAYER3
  6
CONTINUOUS
 62
     3
 10
4949.579142
 20
2894.464703
 11
4949.579142
 21
2895.782463
  0
LINE
  8
CSLAYER3
  6
CONTINUOUS
 62
     3
 10
4949.579142
 20
2895.782463
 11
4951.358118
 21
2896.046015
  0
LINE
  8
CSLAYER3
  6
CONTINUOUS
 62
     3
 10
4951.358118
 20
2896.046015
 11
4952.741766
 21
2897.627327
  0
LINE
  8
CSLAYER3
  6
CONTINUOUS
 62
     3
 10
4952.741766
 20
2897.627327
 11
4953.532422
 21
2900.196958
  0
LINE
  8
CSLAYER3
  6
CONTINUOUS
 62
     3
 10
4953.532422
 20
2900.196958
 11
4953.400646
 21
2903.754910
  0
LINE
  8
CSLAYER3
  6
CONTINUOUS
 62
     3
 10
4953.400646
 20
2903.754910
 11
4952.214662
 21
2907.839965
  0
LINE
  8
CSLAYER3
  6
CONTINUOUS
 62
     3
 10
4952.214662
 20
2907.839965
 11
4949.645030
 21
2912.913340
  0
LINE
  8
CSLAYER3
  6
CONTINUOUS
 62
     3
 10
4949.645030
 20
2912.913340
 11
4945.938831
 21
2920.572819
  0
LINE
  8
CSLAYER3
  6
CONTINUOUS
 62
     3
 10
4945.938831
 20
2920.572819
 11
4944.851679
 21
2923.307171
  0
LINE
  8
CSLAYER3
  6
CONTINUOUS
 62
     3
 10
4944.851679
 20
2923.307171
 11
4944.851679
 21
2916.059492
  0
LINE
  8
CSLAYER3
  6
CONTINUOUS
 62
     3
 10
4944.851679
 20
2916.059492
 11
4945.065815
 21
2906.686925
  0
LINE
  8
CSLAYER3
  6
CONTINUOUS
 62
     3
 10
4945.065815
 20
2906.686925
 11
4945.263479
 21
2899.867518
  0
LINE
  8
CSLAYER3
  6
CONTINUOUS
 62
     3
 10
4945.263479
 20
2899.867518
 11
4945.955303
 21
2896.704895
  0
LINE
  8
CSLAYER3
  6
CONTINUOUS
 62
     3
 10
4945.955303
 20
2896.704895
 11
4947.437783
 21
2894.234095
  0
LINE
  8
CSLAYER3
  6
CONTINUOUS
 62
     3
 10
4947.437783
 20
2894.234095
 11
4949.653266
 21
2891.833759
  0
LINE
  8
CSLAYER3
  6
CONTINUOUS
 62
     3
 10
4959.487049
 20
2900.315008
 11
4960.321630
 21
2901.544917
  0
LINE
  8
CSLAYER3
  6
CONTINUOUS
 62
     3
 10
4960.321630
 20
2901.544917
 11
4961.287987
 21
2902.906602
  0
LINE
  8
CSLAYER3
  6
CONTINUOUS
 62
     3
 10
4961.287987
 20
2902.906602
 11
4961.595465
 21
2908.353342
  0
LINE
  8
CSLAYER3
  6
CONTINUOUS
 62
     3
 10
4961.595465
 20
2908.353342
 11
4961.570757
 21
2918.376553
  0
LINE
  8
CSLAYER3
  6
CONTINUOUS
 62
     3
 10
4961.570757
 20
2918.376553
 11
4961.126013
 21
2927.864424
  0
LINE
  8
CSLAYER3
  6
CONTINUOUS
 62
     3
 10
4961.126013
 20
2927.864424
 11
4960.714213
 21
2930.549359
  0
LINE
  8
CSLAYER3
  6
CONTINUOUS
 62
     3
 10
4960.714213
 20
2930.549359
 11
4959.923557
 21
2932.460111
  0
LINE
  8
CSLAYER3
  6
CONTINUOUS
 62
     3
 10
4959.923557
 20
2932.460111
 11
4959.067013
 21
2933.316655
  0
LINE
  8
CSLAYER3
  6
CONTINUOUS
 62
     3
 10
4959.067013
 20
2933.316655
 11
4957.881029
 21
2933.711983
  0
LINE
  8
CSLAYER3
  6
CONTINUOUS
 62
     3
 10
4957.881029
 20
2933.711983
 11
4958.078693
 21
2934.832079
  0
LINE
  8
CSLAYER3
  6
CONTINUOUS
 62
     3
 10
4958.078693
 20
2934.832079
 11
4960.187109
 21
2934.634415
  0
LINE
  8
CSLAYER3
  6
CONTINUOUS
 62
     3
 10
4960.187109
 20
2934.634415
 11
4963.283844
 21
2935.622734
  0
LINE
  8
CSLAYER3
  6
CONTINUOUS
 62
     3
 10
4963.283844
 20
2935.622734
 11
4965.589924
 21
2937.072270
  0
LINE
  8
CSLAYER3
  6
CONTINUOUS
 62
     3
 10
4965.589924
 20
2937.072270
 11
4967.237124
 21
2937.928814
  0
LINE
  8
CSLAYER3
  6
CONTINUOUS
 62
     3
 10
4967.237124
 20
2937.928814
 11
4967.500676
 21
2936.676942
  0
LINE
  8
CSLAYER3
  6
CONTINUOUS
 62
     3
 10
4967.500676
 20
2936.676942
 11
4966.117028
 21
2935.556846
  0
LINE
  8
CSLAYER3
  6
CONTINUOUS
 62
     3
 10
4966.117028
 20
2935.556846
 11
4965.392260
 21
2933.250767
  0
LINE
  8
CSLAYER3
  6
CONTINUOUS
 62
     3
 10
4965.392260
 20
2933.250767
 11
4964.865156
 21
2928.770383
  0
LINE
  8
CSLAYER3
  6
CONTINUOUS
 62
     3
 10
4964.865156
 20
2928.770383
 11
4964.865156
 21
2921.654480
  0
LINE
  8
CSLAYER3
  6
CONTINUOUS
 62
     3
 10
4964.865156
 20
2921.654480
 11
4965.068311
 21
2912.962756
  0
LINE
  8
CSLAYER3
  6
CONTINUOUS
 62
     3
 10
4965.068311
 20
2912.962756
 11
4965.200087
 21
2907.999194
  0
LINE
  8
CSLAYER3
  6
CONTINUOUS
 62
     3
 10
4965.200087
 20
2907.999194
 11
4965.600905
 21
2904.721267
  0
LINE
  8
CSLAYER3
  6
CONTINUOUS
 62
     3
 10
4965.600905
 20
2904.721267
 11
4966.523337
 21
2902.949612
  0
LINE
  8
CSLAYER3
  6
CONTINUOUS
 62
     3
 10
4966.523337
 20
2902.949612
 11
4967.489694
 21
2901.778270
  0
LINE
  8
CSLAYER3
  6
CONTINUOUS
 62
     3
 10
4967.489694
 20
2901.778270
 11
4968.778171
 21
2900.548361
  0
LINE
  8
CSLAYER3
  6
CONTINUOUS
 62
     3
 10
4968.778171
 20
2900.548361
 11
4969.685961
 21
2901.075465
  0
LINE
  8
CSLAYER3
  6
CONTINUOUS
 62
     3
 10
4969.685961
 20
2901.075465
 11
4970.769452
 21
2901.134032
  0
LINE
  8
CSLAYER3
  6
CONTINUOUS
 62
     3
 10
4970.769452
 20
2901.134032
 11
4971.179422
 21
2899.816272
  0
LINE
  8
CSLAYER3
  6
CONTINUOUS
 62
     3
 10
4971.179422
 20
2899.816272
 11
4970.593751
 21
2898.849915
  0
LINE
  8
CSLAYER3
  6
CONTINUOUS
 62
     3
 10
4970.593751
 20
2898.849915
 11
4967.958231
 21
2898.498512
  0
LINE
  8
CSLAYER3
  6
CONTINUOUS
 62
     3
 10
4967.958231
 20
2898.498512
 11
4965.761965
 21
2899.523437
  0
LINE
  8
CSLAYER3
  6
CONTINUOUS
 62
     3
 10
4965.761965
 20
2899.523437
 11
4963.770683
 21
2900.431227
  0
LINE
  8
CSLAYER3
  6
CONTINUOUS
 62
     3
 10
4963.770683
 20
2900.431227
 11
4961.515850
 21
2900.343376
  0
LINE
  8
CSLAYER3
  6
CONTINUOUS
 62
     3
 10
4961.515850
 20
2900.343376
 11
4960.168807
 21
2899.991973
  0
LINE
  8
CSLAYER3
  6
CONTINUOUS
 62
     3
 10
4960.168807
 20
2899.991973
 11
4959.487049
 21
2900.315008
  0
LINE
  8
CSLAYER3
  6
CONTINUOUS
 62
     3
 10
4982.942716
 20
2915.611545
 11
4983.030567
 21
2914.601263
  0
LINE
  8
CSLAYER3
  6
CONTINUOUS
 62
     3
 10
4983.030567
 20
2914.601263
 11
4984.084775
 21
2913.283503
  0
LINE
  8
CSLAYER3
  6
CONTINUOUS
 62
     3
 10
4984.084775
 20
2913.283503
 11
4985.314684
 21
2911.614340
  0
LINE
  8
CSLAYER3
  6
CONTINUOUS
 62
     3
 10
4985.314684
 20
2911.614340
 11
4985.578236
 21
2901.160113
  0
LINE
  8
CSLAYER3
  6
CONTINUOUS
 62
     3
 10
4985.578236
 20
2901.160113
 11
4985.446460
 21
2897.602161
  0
LINE
  8
CSLAYER3
  6
CONTINUOUS
 62
     3
 10
4985.446460
 20
2897.602161
 11
4981.712807
 21
2898.656369
  0
LINE
  8
CSLAYER3
  6
CONTINUOUS
 62
     3
 10
4981.712807
 20
2898.656369
 11
4978.594109
 21
2900.720859
  0
LINE
  8
CSLAYER3
  6
CONTINUOUS
 62
     3
 10
4978.594109
 20
2900.720859
 11
4975.299709
 21
2904.147035
  0
LINE
  8
CSLAYER3
  6
CONTINUOUS
 62
     3
 10
4975.299709
 20
2904.147035
 11
4973.323069
 21
2907.968538
  0
LINE
  8
CSLAYER3
  6
CONTINUOUS
 62
     3
 10
4973.323069
 20
2907.968538
 11
4972.093160
 21
2912.317146
  0
LINE
  8
CSLAYER3
  6
CONTINUOUS
 62
     3
 10
4972.093160
 20
2912.317146
 11
4971.697832
 21
2916.709678
  0
LINE
  8
CSLAYER3
  6
CONTINUOUS
 62
     3
 10
4971.697832
 20
2916.709678
 11
4971.791174
 21
2921.085739
  0
LINE
  8
CSLAYER3
  6
CONTINUOUS
 62
     3
 10
4971.791174
 20
2921.085739
 11
4972.801456
 21
2925.039018
  0
LINE
  8
CSLAYER3
  6
CONTINUOUS
 62
     3
 10
4972.801456
 20
2925.039018
 11
4974.250992
 21
2928.465194
  0
LINE
  8
CSLAYER3
  6
CONTINUOUS
 62
     3
 10
4974.250992
 20
2928.465194
 11
4976.227632
 21
2931.012863
  0
LINE
  8
CSLAYER3
  6
CONTINUOUS
 62
     3
 10
4976.227632
 20
2931.012863
 11
4978.127402
 21
2932.736932
  0
LINE
  8
CSLAYER3
  6
CONTINUOUS
 62
     3
 10
4978.127402
 20
2932.736932
 11
4980.279743
 21
2933.351887
  0
LINE
  8
CSLAYER3
  6
CONTINUOUS
 62
     3
 10
4980.279743
 20
2933.351887
 11
4981.421802
 21
2933.044409
  0
LINE
  8
CSLAYER3
  6
CONTINUOUS
 62
     3
 10
4981.421802
 20
2933.044409
 11
4981.685354
 21
2932.034127
  0
LINE
  8
CSLAYER3
  6
CONTINUOUS
 62
     3
 10
4981.685354
 20
2932.034127
 11
4981.026474
 21
2930.892068
  0
LINE
  8
CSLAYER3
  6
CONTINUOUS
 62
     3
 10
4981.026474
 20
2930.892068
 11
4981.333951
 21
2928.871503
  0
LINE
  8
CSLAYER3
  6
CONTINUOUS
 62
     3
 10
4981.333951
 20
2928.871503
 11
4982.300308
 21
2930.057487
  0
LINE
  8
CSLAYER3
  6
CONTINUOUS
 62
     3
 10
4982.300308
 20
2930.057487
 11
4985.243305
 21
2934.098617
  0
LINE
  8
CSLAYER3
  6
CONTINUOUS
 62
     3
 10
4985.243305
 20
2934.098617
 11
4986.604990
 21
2935.899556
  0
LINE
  8
CSLAYER3
  6
CONTINUOUS
 62
     3
 10
4986.604990
 20
2935.899556
 11
4986.780691
 21
2937.261241
  0
LINE
  8
CSLAYER3
  6
CONTINUOUS
 62
     3
 10
4986.780691
 20
2937.261241
 11
4986.473214
 21
2938.798627
  0
LINE
  8
CSLAYER3
  6
CONTINUOUS
 62
     3
 10
4986.473214
 20
2938.798627
 11
4985.814334
 21
2938.491150
  0
LINE
  8
CSLAYER3
  6
CONTINUOUS
 62
     3
 10
4985.814334
 20
2938.491150
 11
4985.506857
 21
2937.480867
  0
LINE
  8
CSLAYER3
  6
CONTINUOUS
 62
     3
 10
4985.506857
 20
2937.480867
 11
4984.233022
 21
2936.294883
  0
LINE
  8
CSLAYER3
  6
CONTINUOUS
 62
     3
 10
4984.233022
 20
2936.294883
 11
4981.948905
 21
2935.723854
  0
LINE
  8
CSLAYER3
  6
CONTINUOUS
 62
     3
 10
4981.948905
 20
2935.723854
 11
4978.215253
 21
2935.021049
  0
LINE
  8
CSLAYER3
  6
CONTINUOUS
 62
     3
 10
4978.215253
 20
2935.021049
 11
4974.130197
 21
2932.868708
  0
LINE
  8
CSLAYER3
  6
CONTINUOUS
 62
     3
 10
4974.130197
 20
2932.868708
 11
4971.099350
 21
2929.662159
  0
LINE
  8
CSLAYER3
  6
CONTINUOUS
 62
     3
 10
4971.099350
 20
2929.662159
 11
4968.990934
 21
2926.367760
  0
LINE
  8
CSLAYER3
  6
CONTINUOUS
 62
     3
 10
4968.990934
 20
2926.367760
 11
4967.411452
 21
2922.233288
  0
LINE
  8
CSLAYER3
  6
CONTINUOUS
 62
     3
 10
4967.411452
 20
2922.233288
 11
4966.884349
 21
2918.924247
  0
LINE
  8
CSLAYER3
  6
CONTINUOUS
 62
     3
 10
4966.884349
 20
2918.924247
 11
4967.065541
 21
2913.618433
  0
LINE
  8
CSLAYER3
  6
CONTINUOUS
 62
     3
 10
4967.065541
 20
2913.618433
 11
4968.152692
 21
2909.072162
  0
LINE
  8
CSLAYER3
  6
CONTINUOUS
 62
     3
 10
4968.152692
 20
2909.072162
 11
4970.129332
 21
2904.723555
  0
LINE
  8
CSLAYER3
  6
CONTINUOUS
 62
     3
 10
4970.129332
 20
2904.723555
 11
4972.501300
 21
2901.956259
  0
LINE
  8
CSLAYER3
  6
CONTINUOUS
 62
     3
 10
4972.501300
 20
2901.956259
 11
4975.762755
 21
2898.991300
  0
LINE
  8
CSLAYER3
  6
CONTINUOUS
 62
     3
 10
4975.762755
 20
2898.991300
 11
4979.024211
 21
2896.915828
  0
LINE
  8
CSLAYER3
  6
CONTINUOUS
 62
     3
 10
4979.024211
 20
2896.915828
 11
4982.779826
 21
2895.927508
  0
LINE
  8
CSLAYER3
  6
CONTINUOUS
 62
     3
 10
4982.779826
 20
2895.927508
 11
4986.041282
 21
2895.433348
  0
LINE
  8
CSLAYER3
  6
CONTINUOUS
 62
     3
 10
4986.041282
 20
2895.433348
 11
4988.534044
 21
2895.499236
  0
LINE
  8
CSLAYER3
  6
CONTINUOUS
 62
     3
 10
4988.534044
 20
2895.499236
 11
4990.291057
 21
2895.455311
  0
LINE
  8
CSLAYER3
  6
CONTINUOUS
 62
     3
 10
4990.291057
 20
2895.455311
 11
4990.774236
 21
2895.938489
  0
LINE
  8
CSLAYER3
  6
CONTINUOUS
 62
     3
 10
4990.774236
 20
2895.938489
 11
4990.115356
 21
2896.816996
  0
LINE
  8
CSLAYER3
  6
CONTINUOUS
 62
     3
 10
4990.115356
 20
2896.816996
 11
4989.236849
 21
2898.574009
  0
LINE
  8
CSLAYER3
  6
CONTINUOUS
 62
     3
 10
4989.236849
 20
2898.574009
 11
4989.368625
 21
2901.077753
  0
LINE
  8
CSLAYER3
  6
CONTINUOUS
 62
     3
 10
4989.368625
 20
2901.077753
 11
4989.343917
 21
2907.603409
  0
LINE
  8
CSLAYER3
  6
CONTINUOUS
 62
     3
 10
4989.343917
 20
2907.603409
 11
4989.409805
 21
2911.556688
  0
LINE
  8
CSLAYER3
  6
CONTINUOUS
 62
     3
 10
4989.409805
 20
2911.556688
 11
4990.727565
 21
2911.029584
  0
LINE
  8
CSLAYER3
  6
CONTINUOUS
 62
     3
 10
4990.727565
 20
2911.029584
 11
4992.242989
 21
2911.095472
  0
LINE
  8
CSLAYER3
  6
CONTINUOUS
 62
     3
 10
4992.242989
 20
2911.095472
 11
4993.231309
 21
2911.886128
  0
LINE
  8
CSLAYER3
  6
CONTINUOUS
 62
     3
 10
4993.231309
 20
2911.886128
 11
4994.021965
 21
2913.401552
  0
LINE
  8
CSLAYER3
  6
CONTINUOUS
 62
     3
 10
4993.560749
 20
2914.719312
 11
4992.835981
 21
2914.323984
  0
LINE
  8
CSLAYER3
  6
CONTINUOUS
 62
     3
 10
4992.835981
 20
2914.323984
 11
4992.308877
 21
2913.599216
  0
LINE
  8
CSLAYER3
  6
CONTINUOUS
 62
     3
 10
4992.308877
 20
2913.599216
 11
4990.991117
 21
2913.467440
  0
LINE
  8
CSLAYER3
  6
CONTINUOUS
 62
     3
 10
4990.991117
 20
2913.467440
 11
4989.146253
 21
2913.862768
  0
LINE
  8
CSLAYER3
  6
CONTINUOUS
 62
     3
 10
4989.146253
 20
2913.862768
 11
4988.026157
 21
2914.455760
  0
LINE
  8
CSLAYER3
  6
CONTINUOUS
 62
     3
 10
4988.026157
 20
2914.455760
 11
4986.840174
 21
2915.378192
  0
LINE
  8
CSLAYER3
  6
CONTINUOUS
 62
     3
 10
4986.840174
 20
2915.378192
 11
4985.192974
 21
2915.575856
  0
LINE
  8
CSLAYER3
  6
CONTINUOUS
 62
     3
 10
4985.192974
 20
2915.575856
 11
4983.809326
 21
2915.509968
  0
LINE
  8
CSLAYER3
  6
CONTINUOUS
 62
     3
 10
4983.809326
 20
2915.509968
 11
4982.942716
 21
2915.611545
  0
LINE
  8
CSLAYER3
  6
CONTINUOUS
 62
     3
 10
4992.899123
 20
2899.716067
 11
4992.415945
 21
2900.638499
  0
LINE
  8
CSLAYER3
  6
CONTINUOUS
 62
     3
 10
4992.415945
 20
2900.638499
 11
4993.909406
 21
2902.131960
  0
LINE
  8
CSLAYER3
  6
CONTINUOUS
 62
     3
 10
4993.909406
 20
2902.131960
 11
4994.700062
 21
2904.152525
  0
LINE
  8
CSLAYER3
  6
CONTINUOUS
 62
     3
 10
4994.700062
 20
2904.152525
 11
4994.980086
 21
2908.308960
  0
LINE
  8
CSLAYER3
  6
CONTINUOUS
 62
     3
 10
4994.980086
 20
2908.308960
 11
4995.078918
 21
2916.907342
  0
LINE
  8
CSLAYER3
  6
CONTINUOUS
 62
     3
 10
4995.078918
 20
2916.907342
 11
4994.683590
 21
2921.947774
  0
LINE
  8
CSLAYER3
  6
CONTINUOUS
 62
     3
 10
4994.683590
 20
2921.947774
 11
4994.444746
 21
2925.958705
  0
LINE
  8
CSLAYER3
  6
CONTINUOUS
 62
     3
 10
4994.444746
 20
2925.958705
 11
4994.049418
 21
2928.660113
  0
LINE
  8
CSLAYER3
  6
CONTINUOUS
 62
     3
 10
4994.049418
 20
2928.660113
 11
4992.797546
 21
2930.043760
  0
LINE
  8
CSLAYER3
  6
CONTINUOUS
 62
     3
 10
4992.797546
 20
2930.043760
 11
4992.402218
 21
2931.097968
  0
LINE
  8
CSLAYER3
  6
CONTINUOUS
 62
     3
 10
4992.402218
 20
2931.097968
 11
4993.192874
 21
2931.822736
  0
LINE
  8
CSLAYER3
  6
CONTINUOUS
 62
     3
 10
4993.192874
 20
2931.822736
 11
4994.708298
 21
2930.768528
  0
LINE
  8
CSLAYER3
  6
CONTINUOUS
 62
     3
 10
4994.708298
 20
2930.768528
 11
4996.553162
 21
2930.109648
  0
LINE
  8
CSLAYER3
  6
CONTINUOUS
 62
     3
 10
4996.553162
 20
2930.109648
 11
4998.332137
 21
2929.977872
  0
LINE
  8
CSLAYER3
  6
CONTINUOUS
 62
     3
 10
4998.332137
 20
2929.977872
 11
5000.308777
 21
2930.175536
  0
LINE
  8
CSLAYER3
  6
CONTINUOUS
 62
     3
 10
5000.308777
 20
2930.175536
 11
5000.242889
 21
2929.318992
  0
LINE
  8
CSLAYER3
  6
CONTINUOUS
 62
     3
 10
5000.242889
 20
2929.318992
 11
4998.991017
 21
2928.857777
  0
LINE
  8
CSLAYER3
  6
CONTINUOUS
 62
     3
 10
4998.991017
 20
2928.857777
 11
4998.332137
 21
2927.671793
  0
LINE
  8
CSLAYER3
  6
CONTINUOUS
 62
     3
 10
4998.332137
 20
2927.671793
 11
4998.068585
 21
2924.904497
  0
LINE
  8
CSLAYER3
  6
CONTINUOUS
 62
     3
 10
4998.068585
 20
2924.904497
 11
4997.936809
 21
2917.788594
  0
LINE
  8
CSLAYER3
  6
CONTINUOUS
 62
     3
 10
4997.936809
 20
2917.788594
 11
4998.002697
 21
2915.614290
  0
LINE
  8
CSLAYER3
  6
CONTINUOUS
 62
     3
 10
4998.002697
 20
2915.614290
 11
4998.925129
 21
2916.734386
  0
LINE
  8
CSLAYER3
  6
CONTINUOUS
 62
     3
 10
4998.925129
 20
2916.734386
 11
5000.572329
 21
2917.327378
  0
LINE
  8
CSLAYER3
  6
CONTINUOUS
 62
     3
 10
5000.572329
 20
2917.327378
 11
5001.955977
 21
2917.525042
  0
LINE
  8
CSLAYER3
  6
CONTINUOUS
 62
     3
 10
5001.955977
 20
2917.525042
 11
5003.339625
 21
2917.854482
  0
LINE
  8
CSLAYER3
  6
CONTINUOUS
 62
     3
 10
5003.339625
 20
2917.854482
 11
5003.866729
 21
2918.315698
  0
LINE
  8
CSLAYER3
  6
CONTINUOUS
 62
     3
 10
5003.866729
 20
2918.315698
 11
5003.866729
 21
2926.222257
  0
LINE
  8
CSLAYER3
  6
CONTINUOUS
 62
     3
 10
5003.866729
 20
2926.222257
 11
5003.537289
 21
2927.737681
  0
LINE
  8
CSLAYER3
  6
CONTINUOUS
 62
     3
 10
5003.537289
 20
2927.737681
 11
5002.878409
 21
2929.055441
  0
LINE
  8
CSLAYER3
  6
CONTINUOUS
 62
     3
 10
5002.878409
 20
2929.055441
 11
5002.087753
 21
2929.450768
  0
LINE
  8
CSLAYER3
  6
CONTINUOUS
 62
     3
 10
5002.087753
 20
2929.450768
 11
5002.087753
 21
2930.241424
  0
LINE
  8
CSLAYER3
  6
CONTINUOUS
 62
     3
 10
5002.087753
 20
2930.241424
 11
5003.471401
 21
2929.911984
  0
LINE
  8
CSLAYER3
  6
CONTINUOUS
 62
     3
 10
5003.471401
 20
2929.911984
 11
5005.052712
 21
2930.439088
  0
LINE
  8
CSLAYER3
  6
CONTINUOUS
 62
     3
 10
5005.052712
 20
2930.439088
 11
5006.304584
 21
2930.900304
  0
LINE
  8
CSLAYER3
  6
CONTINUOUS
 62
     3
 10
5006.304584
 20
2930.900304
 11
5007.754120
 21
2931.690960
  0
LINE
  8
CSLAYER3
  6
CONTINUOUS
 62
     3
 10
5007.754120
 20
2931.690960
 11
5008.676552
 21
2930.504976
  0
LINE
  8
CSLAYER3
  6
CONTINUOUS
 62
     3
 10
5008.676552
 20
2930.504976
 11
5007.688232
 21
2929.121329
  0
LINE
  8
CSLAYER3
  6
CONTINUOUS
 62
     3
 10
5007.688232
 20
2929.121329
 11
5007.292904
 21
2926.288145
  0
LINE
  8
CSLAYER3
  6
CONTINUOUS
 62
     3
 10
5007.292904
 20
2926.288145
 11
5007.029352
 21
2920.160562
  0
LINE
  8
CSLAYER3
  6
CONTINUOUS
 62
     3
 10
5007.029352
 20
2920.160562
 11
5007.095240
 21
2919.040466
  0
LINE
  8
CSLAYER3
  6
CONTINUOUS
 62
     3
 10
5007.095240
 20
2919.040466
 11
5008.544776
 21
2919.435794
  0
LINE
  8
CSLAYER3
  6
CONTINUOUS
 62
     3
 10
5008.544776
 20
2919.435794
 11
5010.060200
 21
2920.292338
  0
LINE
  8
CSLAYER3
  6
CONTINUOUS
 62
     3
 10
5010.060200
 20
2920.292338
 11
5010.653192
 21
2921.280658
  0
LINE
  8
CSLAYER3
  6
CONTINUOUS
 62
     3
 10
5010.653192
 20
2921.280658
 11
5010.521416
 21
2922.598417
  0
LINE
  8
CSLAYER3
  6
CONTINUOUS
 62
     3
 10
5010.521416
 20
2922.598417
 11
5010.916743
 21
2923.454961
  0
LINE
  8
CSLAYER3
  6
CONTINUOUS
 62
     3
 10
5010.916743
 20
2923.454961
 11
5012.168615
 21
2923.059633
  0
LINE
  8
CSLAYER3
  6
CONTINUOUS
 62
     3
 10
5012.168615
 20
2923.059633
 11
5012.563943
 21
2920.951218
  0
LINE
  8
CSLAYER3
  6
CONTINUOUS
 62
     3
 10
5012.563943
 20
2920.951218
 11
5012.102727
 21
2918.579250
  0
LINE
  8
CSLAYER3
  6
CONTINUOUS
 62
     3
 10
5012.102727
 20
2918.579250
 11
5010.982631
 21
2917.063826
  0
LINE
  8
CSLAYER3
  6
CONTINUOUS
 62
     3
 10
5010.982631
 20
2917.063826
 11
5009.664872
 21
2916.404946
  0
LINE
  8
CSLAYER3
  6
CONTINUOUS
 62
     3
 10
5009.664872
 20
2916.404946
 11
5007.161128
 21
2916.075506
  0
LINE
  8
CSLAYER3
  6
CONTINUOUS
 62
     3
 10
5007.161128
 20
2916.075506
 11
5007.049942
 21
2908.140122
  0
LINE
  8
CSLAYER3
  6
CONTINUOUS
 62
     3
 10
5007.049942
 20
2908.140122
 11
5007.231134
 21
2904.236258
  0
LINE
  8
CSLAYER3
  6
CONTINUOUS
 62
     3
 10
5007.231134
 20
2904.236258
 11
5007.560574
 21
2902.391394
  0
LINE
  8
CSLAYER3
  6
CONTINUOUS
 62
     3
 10
5007.560574
 20
2902.391394
 11
5008.153566
 21
2900.612419
  0
LINE
  8
CSLAYER3
  6
CONTINUOUS
 62
     3
 10
5008.153566
 20
2900.612419
 11
5009.075998
 21
2899.558211
  0
LINE
  8
CSLAYER3
  6
CONTINUOUS
 62
     3
 10
5009.075998
 20
2899.558211
 11
5009.998430
 21
2898.569891
  0
LINE
  8
CSLAYER3
  6
CONTINUOUS
 62
     3
 10
5009.998430
 20
2898.569891
 11
5009.668990
 21
2897.449795
  0
LINE
  8
CSLAYER3
  6
CONTINUOUS
 62
     3
 10
5009.668990
 20
2897.449795
 11
5008.680670
 21
2897.976899
  0
LINE
  8
CSLAYER3
  6
CONTINUOUS
 62
     3
 10
5008.680670
 20
2897.976899
 11
5007.231134
 21
2899.031107
  0
LINE
  8
CSLAYER3
  6
CONTINUOUS
 62
     3
 10
5007.231134
 20
2899.031107
 11
5005.583934
 21
2899.953539
  0
LINE
  8
CSLAYER3
  6
CONTINUOUS
 62
     3
 10
5005.583934
 20
2899.953539
 11
5003.936735
 21
2899.953539
  0
LINE
  8
CSLAYER3
  6
CONTINUOUS
 62
     3
 10
5003.936735
 20
2899.953539
 11
5002.157759
 21
2899.755875
  0
LINE
  8
CSLAYER3
  6
CONTINUOUS
 62
     3
 10
5002.157759
 20
2899.755875
 11
5001.828319
 21
2900.546531
  0
LINE
  8
CSLAYER3
  6
CONTINUOUS
 62
     3
 10
5001.828319
 20
2900.546531
 11
5002.882527
 21
2902.193730
  0
LINE
  8
CSLAYER3
  6
CONTINUOUS
 62
     3
 10
5002.882527
 20
2902.193730
 11
5003.673183
 21
2904.302146
  0
LINE
  8
CSLAYER3
  6
CONTINUOUS
 62
     3
 10
5003.673183
 20
2904.302146
 11
5003.804959
 21
2907.464770
  0
LINE
  8
CSLAYER3
  6
CONTINUOUS
 62
     3
 10
5003.804959
 20
2907.464770
 11
5003.673183
 21
2911.747489
  0
LINE
  8
CSLAYER3
  6
CONTINUOUS
 62
     3
 10
5003.673183
 20
2911.747489
 11
5003.739071
 21
2915.371329
  0
LINE
  8
CSLAYER3
  6
CONTINUOUS
 62
     3
 10
5003.739071
 20
2915.371329
 11
5002.289535
 21
2915.371329
  0
LINE
  8
CSLAYER3
  6
CONTINUOUS
 62
     3
 10
5002.289535
 20
2915.371329
 11
5000.905887
 21
2914.910113
  0
LINE
  8
CSLAYER3
  6
CONTINUOUS
 62
     3
 10
5000.905887
 20
2914.910113
 11
4999.456351
 21
2914.053569
  0
LINE
  8
CSLAYER3
  6
CONTINUOUS
 62
     3
 10
4999.456351
 20
2914.053569
 11
4997.940927
 21
2912.472257
  0
LINE
  8
CSLAYER3
  6
CONTINUOUS
 62
     3
 10
4997.940927
 20
2912.472257
 11
4997.875039
 21
2908.321314
  0
LINE
  8
CSLAYER3
  6
CONTINUOUS
 62
     3
 10
4997.875039
 20
2908.321314
 11
4998.138591
 21
2905.422242
  0
LINE
  8
CSLAYER3
  6
CONTINUOUS
 62
     3
 10
4998.138591
 20
2905.422242
 11
4998.468031
 21
2904.433922
  0
LINE
  8
CSLAYER3
  6
CONTINUOUS
 62
     3
 10
4998.468031
 20
2904.433922
 11
4999.390463
 21
2904.170370
  0
LINE
  8
CSLAYER3
  6
CONTINUOUS
 62
     3
 10
4999.390463
 20
2904.170370
 11
4999.719903
 21
2902.720834
  0
LINE
  8
CSLAYER3
  6
CONTINUOUS
 62
     3
 10
4999.719903
 20
2902.720834
 11
4998.468031
 21
2902.720834
  0
LINE
  8
CSLAYER3
  6
CONTINUOUS
 62
     3
 10
4998.468031
 20
2902.720834
 11
4997.018496
 21
2902.127842
  0
LINE
  8
CSLAYER3
  6
CONTINUOUS
 62
     3
 10
4997.018496
 20
2902.127842
 11
4995.107744
 21
2900.875971
  0
LINE
  8
CSLAYER3
  6
CONTINUOUS
 62
     3
 10
4995.107744
 20
2900.875971
 11
4992.899123
 21
2899.716067
  0
LINE
  8
CSLAYER3
  6
CONTINUOUS
 62
     3
 10
5015.052588
 20
2896.963871
 11
5014.196044
 21
2898.281631
  0
LINE
  8
CSLAYER3
  6
CONTINUOUS
 62
     3
 10
5014.196044
 20
2898.281631
 11
5016.370347
 21
2899.533503
  0
LINE
  8
CSLAYER3
  6
CONTINUOUS
 62
     3
 10
5016.370347
 20
2899.533503
 11
5017.688107
 21
2901.180703
  0
LINE
  8
CSLAYER3
  6
CONTINUOUS
 62
     3
 10
5017.688107
 20
2901.180703
 11
5017.688107
 21
2904.540990
  0
LINE
  8
CSLAYER3
  6
CONTINUOUS
 62
     3
 10
5017.688107
 20
2904.540990
 11
5017.449263
 21
2912.719337
  0
LINE
  8
CSLAYER3
  6
CONTINUOUS
 62
     3
 10
5017.449263
 20
2912.719337
 11
5018.042255
 21
2921.021224
  0
LINE
  8
CSLAYER3
  6
CONTINUOUS
 62
     3
 10
5018.042255
 20
2921.021224
 11
5017.894007
 21
2925.320415
  0
LINE
  8
CSLAYER3
  6
CONTINUOUS
 62
     3
 10
5017.894007
 20
2925.320415
 11
5017.745759
 21
2931.695078
  0
LINE
  8
CSLAYER3
  6
CONTINUOUS
 62
     3
 10
5017.745759
 20
2931.695078
 11
5015.670287
 21
2931.695078
  0
LINE
  8
CSLAYER3
  6
CONTINUOUS
 62
     3
 10
5015.670287
 20
2931.695078
 11
5014.336056
 21
2930.953838
  0
LINE
  8
CSLAYER3
  6
CONTINUOUS
 62
     3
 10
5014.336056
 20
2930.953838
 11
5013.001824
 21
2929.619606
  0
LINE
  8
CSLAYER3
  6
CONTINUOUS
 62
     3
 10
5013.001824
 20
2929.619606
 11
5012.705328
 21
2927.247639
  0
LINE
  8
CSLAYER3
  6
CONTINUOUS
 62
     3
 10
5010.778104
 20
2929.767854
 11
5009.213264
 21
2931.958630
  0
LINE
  8
CSLAYER3
  6
CONTINUOUS
 62
     3
 10
5009.213264
 20
2931.958630
 11
5006.973073
 21
2934.067046
  0
LINE
  8
CSLAYER3
  6
CONTINUOUS
 62
     3
 10
5006.973073
 20
2934.067046
 11
5007.302513
 21
2935.318918
  0
LINE
  8
CSLAYER3
  6
CONTINUOUS
 62
     3
 10
5007.302513
 20
2935.318918
 11
5008.817936
 21
2934.198822
  0
LINE
  8
CSLAYER3
  6
CONTINUOUS
 62
     3
 10
5008.817936
 20
2934.198822
 11
5013.232432
 21
2934.396486
  0
LINE
  8
CSLAYER3
  6
CONTINUOUS
 62
     3
 10
5013.232432
 20
2934.396486
 11
5017.646927
 21
2934.396486
  0
LINE
  8
CSLAYER3
  6
CONTINUOUS
 62
     3
 10
5017.646927
 20
2934.396486
 11
5020.348335
 21
2933.869382
  0
LINE
  8
CSLAYER3
  6
CONTINUOUS
 62
     3
 10
5020.348335
 20
2933.869382
 11
5023.247406
 21
2932.419846
  0
LINE
  8
CSLAYER3
  6
CONTINUOUS
 62
     3
 10
5023.247406
 20
2932.419846
 11
5026.278254
 21
2930.640870
  0
LINE
  8
CSLAYER3
  6
CONTINUOUS
 62
     3
 10
5026.278254
 20
2930.640870
 11
5029.309101
 21
2929.850214
  0
LINE
  8
CSLAYER3
  6
CONTINUOUS
 62
     3
 10
5029.309101
 20
2929.850214
 11
5031.812845
 21
2929.718438
  0
LINE
  8
CSLAYER3
  6
CONTINUOUS
 62
     3
 10
5031.812845
 20
2929.718438
 11
5033.525933
 21
2930.377318
  0
LINE
  8
CSLAYER3
  6
CONTINUOUS
 62
     3
 10
5033.525933
 20
2930.377318
 11
5033.855373
 21
2931.826854
  0
LINE
  8
CSLAYER3
  6
CONTINUOUS
 62
     3
 10
5033.855373
 20
2931.826854
 11
5034.184813
 21
2933.737606
  0
LINE
  8
CSLAYER3
  6
CONTINUOUS
 62
     3
 10
5034.184813
 20
2933.737606
 11
5035.304909
 21
2933.276390
  0
LINE
  8
CSLAYER3
  6
CONTINUOUS
 62
     3
 10
5035.304909
 20
2933.276390
 11
5035.304909
 21
2930.443206
  0
LINE
  8
CSLAYER3
  6
CONTINUOUS
 62
     3
 10
5035.304909
 20
2930.443206
 11
5034.646029
 21
2928.730119
  0
LINE
  8
CSLAYER3
  6
CONTINUOUS
 62
     3
 10
5034.646029
 20
2928.730119
 11
5032.801165
 21
2927.675911
  0
LINE
  8
CSLAYER3
  6
CONTINUOUS
 62
     3
 10
5032.801165
 20
2927.675911
 11
5029.770317
 21
2927.544135
  0
LINE
  8
CSLAYER3
  6
CONTINUOUS
 62
     3
 10
5029.770317
 20
2927.544135
 11
5026.278254
 21
2927.807687
  0
LINE
  8
CSLAYER3
  6
CONTINUOUS
 62
     3
 10
5026.278254
 20
2927.807687
 11
5023.576846
 21
2928.861895
  0
LINE
  8
CSLAYER3
  6
CONTINUOUS
 62
     3
 10
5023.576846
 20
2928.861895
 11
5021.797871
 21
2929.718438
  0
LINE
  8
CSLAYER3
  6
CONTINUOUS
 62
     3
 10
5021.797871
 20
2929.718438
 11
5021.336655
 21
2928.796007
  0
LINE
  8
CSLAYER3
  6
CONTINUOUS
 62
     3
 10
5021.336655
 20
2928.796007
 11
5021.394307
 21
2918.739852
  0
LINE
  8
CSLAYER3
  6
CONTINUOUS
 62
     3
 10
5021.394307
 20
2918.739852
 11
5021.246059
 21
2910.882709
  0
LINE
  8
CSLAYER3
  6
CONTINUOUS
 62
     3
 10
5021.246059
 20
2910.882709
 11
5021.839051
 21
2905.101038
  0
LINE
  8
CSLAYER3
  6
CONTINUOUS
 62
     3
 10
5021.839051
 20
2905.101038
 11
5022.090249
 21
2900.921269
  0
LINE
  8
CSLAYER3
  6
CONTINUOUS
 62
     3
 10
5022.090249
 20
2900.921269
 11
5022.683240
 21
2898.878741
  0
LINE
  8
CSLAYER3
  6
CONTINUOUS
 62
     3
 10
5022.683240
 20
2898.878741
 11
5023.408008
 21
2897.165653
  0
LINE
  8
CSLAYER3
  6
CONTINUOUS
 62
     3
 10
5023.408008
 20
2897.165653
 11
5024.593992
 21
2896.704437
  0
LINE
  8
CSLAYER3
  6
CONTINUOUS
 62
     3
 10
5024.593992
 20
2896.704437
 11
5025.384648
 21
2896.506773
  0
LINE
  8
CSLAYER3
  6
CONTINUOUS
 62
     3
 10
5025.384648
 20
2896.506773
 11
5025.911752
 21
2895.123125
  0
LINE
  8
CSLAYER3
  6
CONTINUOUS
 62
     3
 10
5025.911752
 20
2895.123125
 11
5024.330440
 21
2894.925461
  0
LINE
  8
CSLAYER3
  6
CONTINUOUS
 62
     3
 10
5024.330440
 20
2894.925461
 11
5022.551464
 21
2895.254901
  0
LINE
  8
CSLAYER3
  6
CONTINUOUS
 62
     3
 10
5022.551464
 20
2895.254901
 11
5021.299593
 21
2896.309109
  0
LINE
  8
CSLAYER3
  6
CONTINUOUS
 62
     3
 10
5021.299593
 20
2896.309109
 11
5020.047721
 21
2897.099765
  0
LINE
  8
CSLAYER3
  6
CONTINUOUS
 62
     3
 10
5020.047721
 20
2897.099765
 11
5018.532297
 21
2897.824533
  0
LINE
  8
CSLAYER3
  6
CONTINUOUS
 62
     3
 10
5018.532297
 20
2897.824533
 11
5017.346313
 21
2897.956309
  0
LINE
  8
CSLAYER3
  6
CONTINUOUS
 62
     3
 10
5017.346313
 20
2897.956309
 11
5016.357993
 21
2897.626869
  0
LINE
  8
CSLAYER3
  6
CONTINUOUS
 62
     3
 10
5016.357993
 20
2897.626869
 11
5015.052588
 21
2896.963871
  0
LINE
  8
CSLAYER3
  6
CONTINUOUS
 62
     3
 10
5027.254220
 20
2899.183473
 11
5028.934364
 21
2901.753104
  0
LINE
  8
CSLAYER3
  6
CONTINUOUS
 62
     3
 10
5028.934364
 20
2901.753104
 11
5029.823851
 21
2905.212224
  0
LINE
  8
CSLAYER3
  6
CONTINUOUS
 62
     3
 10
5029.823851
 20
2905.212224
 11
5030.614507
 21
2911.142143
  0
LINE
  8
CSLAYER3
  6
CONTINUOUS
 62
     3
 10
5030.614507
 20
2911.142143
 11
5030.713339
 21
2916.281406
  0
LINE
  8
CSLAYER3
  6
CONTINUOUS
 62
     3
 10
5030.713339
 20
2916.281406
 11
5030.614507
 21
2919.542862
  0
LINE
  8
CSLAYER3
  6
CONTINUOUS
 62
     3
 10
5030.614507
 20
2919.542862
 11
5029.354399
 21
2923.010217
  0
LINE
  8
CSLAYER3
  6
CONTINUOUS
 62
     3
 10
5029.354399
 20
2923.010217
 11
5028.300192
 21
2924.327977
  0
LINE
  8
CSLAYER3
  6
CONTINUOUS
 62
     3
 10
5028.300192
 20
2924.327977
 11
5029.552063
 21
2924.657417
  0
LINE
  8
CSLAYER3
  6
CONTINUOUS
 62
     3
 10
5029.552063
 20
2924.657417
 11
5031.792255
 21
2925.382185
  0
LINE
  8
CSLAYER3
  6
CONTINUOUS
 62
     3
 10
5031.792255
 20
2925.382185
 11
5033.571231
 21
2925.843401
  0
LINE
  8
CSLAYER3
  6
CONTINUOUS
 62
     3
 10
5033.571231
 20
2925.843401
 11
5034.757215
 21
2927.029385
  0
LINE
  8
CSLAYER3
  6
CONTINUOUS
 62
     3
 10
5034.757215
 20
2927.029385
 11
5035.481983
 21
2927.358825
  0
LINE
  8
CSLAYER3
  6
CONTINUOUS
 62
     3
 10
5035.481983
 20
2927.358825
 11
5035.679647
 21
2926.238729
  0
LINE
  8
CSLAYER3
  6
CONTINUOUS
 62
     3
 10
5035.679647
 20
2926.238729
 11
5035.350207
 21
2924.723305
  0
LINE
  8
CSLAYER3
  6
CONTINUOUS
 62
     3
 10
5035.350207
 20
2924.723305
 11
5035.811423
 21
2921.231242
  0
LINE
  8
CSLAYER3
  6
CONTINUOUS
 62
     3
 10
5035.811423
 20
2921.231242
 11
5037.195070
 21
2917.673290
  0
LINE
  8
CSLAYER3
  6
CONTINUOUS
 62
     3
 10
5037.195070
 20
2917.673290
 11
5038.381054
 21
2915.433099
  0
LINE
  8
CSLAYER3
  6
CONTINUOUS
 62
     3
 10
5038.381054
 20
2915.433099
 11
5039.039934
 21
2913.785899
  0
LINE
  8
CSLAYER3
  6
CONTINUOUS
 62
     3
 10
5039.039934
 20
2913.785899
 11
5040.950686
 21
2917.080298
  0
LINE
  8
CSLAYER3
  6
CONTINUOUS
 62
     3
 10
5040.950686
 20
2917.080298
 11
5042.004894
 21
2919.649930
  0
LINE
  8
CSLAYER3
  6
CONTINUOUS
 62
     3
 10
5042.004894
 20
2919.649930
 11
5043.520317
 21
2922.680777
  0
LINE
  8
CSLAYER3
  6
CONTINUOUS
 62
     3
 10
5043.520317
 20
2922.680777
 11
5043.586205
 21
2927.951817
  0
LINE
  8
CSLAYER3
  6
CONTINUOUS
 62
     3
 10
5043.586205
 20
2927.951817
 11
5042.861438
 21
2928.676585
  0
LINE
  8
CSLAYER3
  6
CONTINUOUS
 62
     3
 10
5042.861438
 20
2928.676585
 11
5041.346014
 21
2928.610697
  0
LINE
  8
CSLAYER3
  6
CONTINUOUS
 62
     3
 10
5041.346014
 20
2928.610697
 11
5040.818910
 21
2929.664904
  0
LINE
  8
CSLAYER3
  6
CONTINUOUS
 62
     3
 10
5040.818910
 20
2929.664904
 11
5042.597886
 21
2929.928456
  0
LINE
  8
CSLAYER3
  6
CONTINUOUS
 62
     3
 10
5042.597886
 20
2929.928456
 11
5044.376861
 21
2929.599016
  0
LINE
  8
CSLAYER3
  6
CONTINUOUS
 62
     3
 10
5044.376861
 20
2929.599016
 11
5046.155837
 21
2928.215369
  0
LINE
  8
CSLAYER3
  6
CONTINUOUS
 62
     3
 10
5046.155837
 20
2928.215369
 11
5047.605373
 21
2927.622377
  0
LINE
  8
CSLAYER3
  6
CONTINUOUS
 62
     3
 10
5047.605373
 20
2927.622377
 11
5049.318461
 21
2927.556489
  0
LINE
  8
CSLAYER3
  6
CONTINUOUS
 62
     3
 10
5049.318461
 20
2927.556489
 11
5049.911452
 21
2926.304617
  0
LINE
  8
CSLAYER3
  6
CONTINUOUS
 62
     3
 10
5049.911452
 20
2926.304617
 11
5048.725469
 21
2925.645737
  0
LINE
  8
CSLAYER3
  6
CONTINUOUS
 62
     3
 10
5048.725469
 20
2925.645737
 11
5047.803037
 21
2923.866761
  0
LINE
  8
CSLAYER3
  6
CONTINUOUS
 62
     3
 10
5047.803037
 20
2923.866761
 11
5047.671261
 21
2920.704138
  0
LINE
  8
CSLAYER3
  6
CONTINUOUS
 62
     3
 10
5047.671261
 20
2920.704138
 11
5047.737149
 21
2911.611595
  0
LINE
  8
CSLAYER3
  6
CONTINUOUS
 62
     3
 10
5047.737149
 20
2911.611595
 11
5047.827745
 21
2905.689912
  0
LINE
  8
CSLAYER3
  6
CONTINUOUS
 62
     3
 10
5047.827745
 20
2905.689912
 11
5048.091297
 21
2902.395512
  0
LINE
  8
CSLAYER3
  6
CONTINUOUS
 62
     3
 10
5048.091297
 20
2902.395512
 11
5048.486625
 21
2900.682425
  0
LINE
  8
CSLAYER3
  6
CONTINUOUS
 62
     3
 10
5048.486625
 20
2900.682425
 11
5049.013729
 21
2899.430553
  0
LINE
  8
CSLAYER3
  6
CONTINUOUS
 62
     3
 10
5049.013729
 20
2899.430553
 11
5050.133824
 21
2898.837561
  0
LINE
  8
CSLAYER3
  6
CONTINUOUS
 62
     3
 10
5050.133824
 20
2898.837561
 11
5050.331488
 21
2897.717465
  0
LINE
  8
CSLAYER3
  6
CONTINUOUS
 62
     3
 10
5050.331488
 20
2897.717465
 11
5048.816065
 21
2897.519801
  0
LINE
  8
CSLAYER3
  6
CONTINUOUS
 62
     3
 10
5048.816065
 20
2897.519801
 11
5047.432417
 21
2898.244569
  0
LINE
  8
CSLAYER3
  6
CONTINUOUS
 62
     3
 10
5047.432417
 20
2898.244569
 11
5044.928673
 21
2899.364665
  0
LINE
  8
CSLAYER3
  6
CONTINUOUS
 62
     3
 10
5044.928673
 20
2899.364665
 11
5043.215585
 21
2899.628217
  0
LINE
  8
CSLAYER3
  6
CONTINUOUS
 62
     3
 10
5043.215585
 20
2899.628217
 11
5042.029602
 21
2899.167001
  0
LINE
  8
CSLAYER3
  6
CONTINUOUS
 62
     3
 10
5042.029602
 20
2899.167001
 11
5042.029602
 21
2900.682425
  0
LINE
  8
CSLAYER3
  6
CONTINUOUS
 62
     3
 10
5042.029602
 20
2900.682425
 11
5043.479137
 21
2902.461400
  0
LINE
  8
CSLAYER3
  6
CONTINUOUS
 62
     3
 10
5043.479137
 20
2902.461400
 11
5044.269793
 21
2905.294584
  0
LINE
  8
CSLAYER3
  6
CONTINUOUS
 62
     3
 10
5044.269793
 20
2905.294584
 11
5044.203905
 21
2908.918423
  0
LINE
  8
CSLAYER3
  6
CONTINUOUS
 62
     3
 10
5044.203905
 20
2908.918423
 11
5044.203905
 21
2913.662359
  0
LINE
  8
CSLAYER3
  6
CONTINUOUS
 62
     3
 10
5044.203905
 20
2913.662359
 11
5044.665121
 21
2915.836662
  0
LINE
  8
CSLAYER3
  6
CONTINUOUS
 62
     3
 10
5044.665121
 20
2915.836662
 11
5044.467457
 21
2918.010966
  0
LINE
  8
CSLAYER3
  6
CONTINUOUS
 62
     3
 10
5044.467457
 20
2918.010966
 11
5043.413249
 21
2916.561430
  0
LINE
  8
CSLAYER3
  6
CONTINUOUS
 62
     3
 10
5043.413249
 20
2916.561430
 11
5042.227266
 21
2914.321239
  0
LINE
  8
CSLAYER3
  6
CONTINUOUS
 62
     3
 10
5042.227266
 20
2914.321239
 11
5041.041282
 21
2911.883383
  0
LINE
  8
CSLAYER3
  6
CONTINUOUS
 62
     3
 10
5041.041282
 20
2911.883383
 11
5040.777730
 21
2910.170295
  0
LINE
  8
CSLAYER3
  6
CONTINUOUS
 62
     3
 10
5040.777730
 20
2910.170295
 11
5040.909506
 21
2907.007672
  0
LINE
  8
CSLAYER3
  6
CONTINUOUS
 62
     3
 10
5040.909506
 20
2907.007672
 11
5039.328194
 21
2905.887576
  0
LINE
  8
CSLAYER3
  6
CONTINUOUS
 62
     3
 10
5039.328194
 20
2905.887576
 11
5038.010434
 21
2904.438040
  0
LINE
  8
CSLAYER3
  6
CONTINUOUS
 62
     3
 10
5038.010434
 20
2904.438040
 11
5036.890338
 21
2902.724952
  0
LINE
  8
CSLAYER3
  6
CONTINUOUS
 62
     3
 10
5036.890338
 20
2902.724952
 11
5035.902019
 21
2903.976824
  0
LINE
  8
CSLAYER3
  6
CONTINUOUS
 62
     3
 10
5035.902019
 20
2903.976824
 11
5036.758562
 21
2905.624024
  0
LINE
  8
CSLAYER3
  6
CONTINUOUS
 62
     3
 10
5036.758562
 20
2905.624024
 11
5037.351554
 21
2908.193656
  0
LINE
  8
CSLAYER3
  6
CONTINUOUS
 62
     3
 10
5037.351554
 20
2908.193656
 11
5036.429122
 21
2910.829175
  0
LINE
  8
CSLAYER3
  6
CONTINUOUS
 62
     3
 10
5036.429122
 20
2910.829175
 11
5035.506691
 21
2912.805815
  0
LINE
  8
CSLAYER3
  6
CONTINUOUS
 62
     3
 10
5035.506691
 20
2912.805815
 11
5034.188931
 21
2915.441335
  0
LINE
  8
CSLAYER3
  6
CONTINUOUS
 62
     3
 10
5034.188931
 20
2915.441335
 11
5033.595939
 21
2917.615638
  0
LINE
  8
CSLAYER3
  6
CONTINUOUS
 62
     3
 10
5033.595939
 20
2917.615638
 11
5033.266499
 21
2913.860023
  0
LINE
  8
CSLAYER3
  6
CONTINUOUS
 62
     3
 10
5033.266499
 20
2913.860023
 11
5033.332387
 21
2907.864216
  0
LINE
  8
CSLAYER3
  6
CONTINUOUS
 62
     3
 10
5033.332387
 20
2907.864216
 11
5033.398275
 21
2905.031032
  0
LINE
  8
CSLAYER3
  6
CONTINUOUS
 62
     3
 10
5033.398275
 20
2905.031032
 11
5033.727715
 21
2902.395512
  0
LINE
  8
CSLAYER3
  6
CONTINUOUS
 62
     3
 10
5033.727715
 20
2902.395512
 11
5034.913699
 21
2900.484761
  0
LINE
  8
CSLAYER3
  6
CONTINUOUS
 62
     3
 10
5034.913699
 20
2900.484761
 11
5036.626786
 21
2899.694105
  0
LINE
  8
CSLAYER3
  6
CONTINUOUS
 62
     3
 10
5036.626786
 20
2899.694105
 11
5036.626786
 21
2898.376345
  0
LINE
  8
CSLAYER3
  6
CONTINUOUS
 62
     3
 10
5036.626786
 20
2898.376345
 11
5034.584259
 21
2899.167001
  0
LINE
  8
CSLAYER3
  6
CONTINUOUS
 62
     3
 10
5034.584259
 20
2899.167001
 11
5031.816963
 21
2899.364665
  0
LINE
  8
CSLAYER3
  6
CONTINUOUS
 62
     3
 10
5031.816963
 20
2899.364665
 11
5029.247331
 21
2899.232889
  0
LINE
  8
CSLAYER3
  6
CONTINUOUS
 62
     3
 10
5029.247331
 20
2899.232889
 11
5027.254220
 21
2899.183473
  0
LINE
  8
CSLAYER3
  6
CONTINUOUS
 62
     3
 10
5049.474945
 20
2902.395512
 11
5050.485227
 21
2901.692707
  0
LINE
  8
CSLAYER3
  6
CONTINUOUS
 62
     3
 10
5050.485227
 20
2901.692707
 11
5051.407659
 21
2900.945977
  0
LINE
  8
CSLAYER3
  6
CONTINUOUS
 62
     3
 10
5051.407659
 20
2900.945977
 11
5052.154389
 21
2901.736633
  0
LINE
  8
CSLAYER3
  6
CONTINUOUS
 62
     3
 10
5052.154389
 20
2901.736633
 11
5053.329392
 21
2906.213355
  0
LINE
  8
CSLAYER3
  6
CONTINUOUS
 62
     3
 10
5053.329392
 20
2906.213355
 11
5054.383600
 21
2910.232523
  0
LINE
  8
CSLAYER3
  6
CONTINUOUS
 62
     3
 10
5054.383600
 20
2910.232523
 11
5054.910704
 21
2914.712906
  0
LINE
  8
CSLAYER3
  6
CONTINUOUS
 62
     3
 10
5054.910704
 20
2914.712906
 11
5056.096688
 21
2919.852169
  0
LINE
  8
CSLAYER3
  6
CONTINUOUS
 62
     3
 10
5056.096688
 20
2919.852169
 11
5056.195520
 21
2923.212457
  0
LINE
  8
CSLAYER3
  6
CONTINUOUS
 62
     3
 10
5056.195520
 20
2923.212457
 11
5056.195520
 21
2927.264568
  0
LINE
  8
CSLAYER3
  6
CONTINUOUS
 62
     3
 10
5056.195520
 20
2927.264568
 11
5055.108368
 21
2928.845880
  0
LINE
  8
CSLAYER3
  6
CONTINUOUS
 62
     3
 10
5055.108368
 20
2928.845880
 11
5054.120048
 21
2928.944712
  0
LINE
  8
CSLAYER3
  6
CONTINUOUS
 62
     3
 10
5054.120048
 20
2928.944712
 11
5053.230560
 21
2928.252888
  0
LINE
  8
CSLAYER3
  6
CONTINUOUS
 62
     3
 10
5053.230560
 20
2928.252888
 11
5052.242240
 21
2927.363400
  0
LINE
  8
CSLAYER3
  6
CONTINUOUS
 62
     3
 10
5051.155088
 20
2928.648216
 11
5051.748080
 21
2929.636536
  0
LINE
  8
CSLAYER3
  6
CONTINUOUS
 62
     3
 10
5051.748080
 20
2929.636536
 11
5053.329392
 21
2930.229528
  0
LINE
  8
CSLAYER3
  6
CONTINUOUS
 62
     3
 10
5053.329392
 20
2930.229528
 11
5055.009536
 21
2930.624856
  0
LINE
  8
CSLAYER3
  6
CONTINUOUS
 62
     3
 10
5055.009536
 20
2930.624856
 11
5057.183839
 21
2930.130696
  0
LINE
  8
CSLAYER3
  6
CONTINUOUS
 62
     3
 10
5057.183839
 20
2930.130696
 11
5058.863983
 21
2929.340040
  0
LINE
  8
CSLAYER3
  6
CONTINUOUS
 62
     3
 10
5058.863983
 20
2929.340040
 11
5060.247631
 21
2928.845880
  0
LINE
  8
CSLAYER3
  6
CONTINUOUS
 62
     3
 10
5060.247631
 20
2928.845880
 11
5061.532447
 21
2928.845880
  0
LINE
  8
CSLAYER3
  6
CONTINUOUS
 62
     3
 10
5061.532447
 20
2928.845880
 11
5063.607918
 21
2928.845880
  0
LINE
  8
CSLAYER3
  6
CONTINUOUS
 62
     3
 10
5063.607918
 20
2928.845880
 11
5064.892734
 21
2929.043544
  0
LINE
  8
CSLAYER3
  6
CONTINUOUS
 62
     3
 10
5064.892734
 20
2929.043544
 11
5065.189230
 21
2927.264568
  0
LINE
  8
CSLAYER3
  6
CONTINUOUS
 62
     3
 10
5065.189230
 20
2927.264568
 11
5064.003246
 21
2926.177417
  0
LINE
  8
CSLAYER3
  6
CONTINUOUS
 62
     3
 10
5064.003246
 20
2926.177417
 11
5063.706750
 21
2924.793769
  0
LINE
  8
CSLAYER3
  6
CONTINUOUS
 62
     3
 10
5063.706750
 20
2924.793769
 11
5063.509087
 21
2922.520633
  0
LINE
  8
CSLAYER3
  6
CONTINUOUS
 62
     3
 10
5063.509087
 20
2922.520633
 11
5063.904414
 21
2919.456841
  0
LINE
  8
CSLAYER3
  6
CONTINUOUS
 62
     3
 10
5063.904414
 20
2919.456841
 11
5064.497406
 21
2914.614074
  0
LINE
  8
CSLAYER3
  6
CONTINUOUS
 62
     3
 10
5064.497406
 20
2914.614074
 11
5065.979886
 21
2915.602394
  0
LINE
  8
CSLAYER3
  6
CONTINUOUS
 62
     3
 10
5065.979886
 20
2915.602394
 11
5066.968206
 21
2917.381370
  0
LINE
  8
CSLAYER3
  6
CONTINUOUS
 62
     3
 10
5066.968206
 20
2917.381370
 11
5067.363534
 21
2919.160346
  0
LINE
  8
CSLAYER3
  6
CONTINUOUS
 62
     3
 10
5067.363534
 20
2919.160346
 11
5067.363534
 21
2920.543993
  0
LINE
  8
CSLAYER3
  6
CONTINUOUS
 62
     3
 10
5068.846014
 20
2919.061514
 11
5069.142510
 21
2916.689546
  0
LINE
  8
CSLAYER3
  6
CONTINUOUS
 62
     3
 10
5069.142510
 20
2916.689546
 11
5068.648350
 21
2914.416410
  0
LINE
  8
CSLAYER3
  6
CONTINUOUS
 62
     3
 10
5068.648350
 20
2914.416410
 11
5067.165870
 21
2912.736266
  0
LINE
  8
CSLAYER3
  6
CONTINUOUS
 62
     3
 10
5067.165870
 20
2912.736266
 11
5065.090398
 21
2911.649115
  0
LINE
  8
CSLAYER3
  6
CONTINUOUS
 62
     3
 10
5065.090398
 20
2911.649115
 11
5065.288062
 21
2908.387659
  0
LINE
  8
CSLAYER3
  6
CONTINUOUS
 62
     3
 10
5065.288062
 20
2908.387659
 11
5065.683390
 21
2905.916859
  0
LINE
  8
CSLAYER3
  6
CONTINUOUS
 62
     3
 10
5065.683390
 20
2905.916859
 11
5066.276382
 21
2902.853068
  0
LINE
  8
CSLAYER3
  6
CONTINUOUS
 62
     3
 10
5066.276382
 20
2902.853068
 11
5067.165870
 21
2900.085772
  0
LINE
  8
CSLAYER3
  6
CONTINUOUS
 62
     3
 10
5067.165870
 20
2900.085772
 11
5068.747182
 21
2897.713805
  0
LINE
  8
CSLAYER3
  6
CONTINUOUS
 62
     3
 10
5068.747182
 20
2897.713805
 11
5070.723821
 21
2896.527821
  0
LINE
  8
CSLAYER3
  6
CONTINUOUS
 62
     3
 10
5070.723821
 20
2896.527821
 11
5072.403965
 21
2895.934829
  0
LINE
  8
CSLAYER3
  6
CONTINUOUS
 62
     3
 10
5072.403965
 20
2895.934829
 11
5073.886445
 21
2896.330157
  0
LINE
  8
CSLAYER3
  6
CONTINUOUS
 62
     3
 10
5073.886445
 20
2896.330157
 11
5075.171261
 21
2897.614973
  0
LINE
  8
CSLAYER3
  6
CONTINUOUS
 62
     3
 10
5075.171261
 20
2897.614973
 11
5076.357245
 21
2898.504461
  0
LINE
  8
CSLAYER3
  6
CONTINUOUS
 62
     3
 10
5076.357245
 20
2898.504461
 11
5078.432716
 21
2899.097452
  0
LINE
  8
CSLAYER3
  6
CONTINUOUS
 62
     3
 10
5078.432716
 20
2899.097452
 11
5079.519868
 21
2898.405629
  0
LINE
  8
CSLAYER3
  6
CONTINUOUS
 62
     3
 10
5079.519868
 20
2898.405629
 11
5078.136220
 21
2897.021981
  0
LINE
  8
CSLAYER3
  6
CONTINUOUS
 62
     3
 10
5078.136220
 20
2897.021981
 11
5076.456077
 21
2896.626653
  0
LINE
  8
CSLAYER3
  6
CONTINUOUS
 62
     3
 10
5076.456077
 20
2896.626653
 11
5075.171261
 21
2895.045341
  0
LINE
  8
CSLAYER3
  6
CONTINUOUS
 62
     3
 10
5075.171261
 20
2895.045341
 11
5072.601629
 21
2894.254685
  0
LINE
  8
CSLAYER3
  6
CONTINUOUS
 62
     3
 10
5072.601629
 20
2894.254685
 11
5069.735502
 21
2894.551181
  0
LINE
  8
CSLAYER3
  6
CONTINUOUS
 62
     3
 10
5069.735502
 20
2894.551181
 11
5066.968206
 21
2895.440669
  0
LINE
  8
CSLAYER3
  6
CONTINUOUS
 62
     3
 10
5066.968206
 20
2895.440669
 11
5065.189230
 21
2897.021981
  0
LINE
  8
CSLAYER3
  6
CONTINUOUS
 62
     3
 10
5065.189230
 20
2897.021981
 11
5063.607918
 21
2898.109133
  0
LINE
  8
CSLAYER3
  6
CONTINUOUS
 62
     3
 10
5063.607918
 20
2898.109133
 11
5062.520767
 21
2898.109133
  0
LINE
  8
CSLAYER3
  6
CONTINUOUS
 62
     3
 10
5062.520767
 20
2898.109133
 11
5060.741791
 21
2897.516141
  0
LINE
  8
CSLAYER3
  6
CONTINUOUS
 62
     3
 10
5060.741791
 20
2897.516141
 11
5060.544127
 21
2898.504461
  0
LINE
  8
CSLAYER3
  6
CONTINUOUS
 62
     3
 10
5060.544127
 20
2898.504461
 11
5061.433615
 21
2899.492780
  0
LINE
  8
CSLAYER3
  6
CONTINUOUS
 62
     3
 10
5061.433615
 20
2899.492780
 11
5062.520767
 21
2901.074092
  0
LINE
  8
CSLAYER3
  6
CONTINUOUS
 62
     3
 10
5062.520767
 20
2901.074092
 11
5062.619599
 21
2903.347228
  0
LINE
  8
CSLAYER3
  6
CONTINUOUS
 62
     3
 10
5062.619599
 20
2903.347228
 11
5062.323103
 21
2906.806347
  0
LINE
  8
CSLAYER3
  6
CONTINUOUS
 62
     3
 10
5062.323103
 20
2906.806347
 11
5061.631279
 21
2909.079483
  0
LINE
  8
CSLAYER3
  6
CONTINUOUS
 62
     3
 10
5061.631279
 20
2909.079483
 11
5061.730111
 21
2910.364299
  0
LINE
  8
CSLAYER3
  6
CONTINUOUS
 62
     3
 10
5061.730111
 20
2910.364299
 11
5059.259311
 21
2909.375979
  0
LINE
  8
CSLAYER3
  6
CONTINUOUS
 62
     3
 10
5059.259311
 20
2909.375979
 11
5057.974495
 21
2908.288827
  0
LINE
  8
CSLAYER3
  6
CONTINUOUS
 62
     3
 10
5057.974495
 20
2908.288827
 11
5056.788511
 21
2906.608683
  0
LINE
  8
CSLAYER3
  6
CONTINUOUS
 62
     3
 10
5056.788511
 20
2906.608683
 11
5056.393184
 21
2904.533212
  0
LINE
  8
CSLAYER3
  6
CONTINUOUS
 62
     3
 10
5056.393184
 20
2904.533212
 11
5056.393184
 21
2902.161244
  0
LINE
  8
CSLAYER3
  6
CONTINUOUS
 62
     3
 10
5056.393184
 20
2902.161244
 11
5056.986175
 21
2899.789276
  0
LINE
  8
CSLAYER3
  6
CONTINUOUS
 62
     3
 10
5056.986175
 20
2899.789276
 11
5057.776831
 21
2896.428989
  0
LINE
  8
CSLAYER3
  6
CONTINUOUS
 62
     3
 10
5057.776831
 20
2896.428989
 11
5057.057554
 21
2896.943281
  0
LINE
  8
CSLAYER3
  6
CONTINUOUS
 62
     3
 10
5057.057554
 20
2896.943281
 11
5056.149764
 21
2898.231757
  0
LINE
  8
CSLAYER3
  6
CONTINUOUS
 62
     3
 10
5056.149764
 20
2898.231757
 11
5054.422034
 21
2898.963846
  0
LINE
  8
CSLAYER3
  6
CONTINUOUS
 62
     3
 10
5054.422034
 20
2898.963846
 11
5052.665021
 21
2899.315249
  0
LINE
  8
CSLAYER3
  6
CONTINUOUS
 62
     3
 10
5052.665021
 20
2899.315249
 11
5051.259411
 21
2899.461667
  0
LINE
  8
CSLAYER3
  6
CONTINUOUS
 62
     3
 10
5051.259411
 20
2899.461667
 11
5050.117352
 21
2900.135188
  0
LINE
  8
CSLAYER3
  6
CONTINUOUS
 62
     3
 10
5050.117352
 20
2900.135188
 11
5049.474945
 21
2902.395512
  0
LINE
  8
CSLAYER3
  6
CONTINUOUS
 62
     3
 10
5068.713323
 20
2901.611262
 11
5069.569867
 21
2902.533694
  0
LINE
  8
CSLAYER3
  6
CONTINUOUS
 62
     3
 10
5069.569867
 20
2902.533694
 11
5070.294634
 21
2903.522014
  0
LINE
  8
CSLAYER3
  6
CONTINUOUS
 62
     3
 10
5070.294634
 20
2903.522014
 11
5070.558186
 21
2905.762206
  0
LINE
  8
CSLAYER3
  6
CONTINUOUS
 62
     3
 10
5070.558186
 20
2905.762206
 11
5070.821738
 21
2912.087453
  0
LINE
  8
CSLAYER3
  6
CONTINUOUS
 62
     3
 10
5070.821738
 20
2912.087453
 11
5070.871154
 21
2917.967956
  0
LINE
  8
CSLAYER3
  6
CONTINUOUS
 62
     3
 10
5070.871154
 20
2917.967956
 11
5070.574658
 21
2924.985027
  0
LINE
  8
CSLAYER3
  6
CONTINUOUS
 62
     3
 10
5070.574658
 20
2924.985027
 11
5070.179330
 21
2928.147650
  0
LINE
  8
CSLAYER3
  6
CONTINUOUS
 62
     3
 10
5070.179330
 20
2928.147650
 11
5069.289843
 21
2929.432466
  0
LINE
  8
CSLAYER3
  6
CONTINUOUS
 62
     3
 10
5069.289843
 20
2929.432466
 11
5067.609699
 21
2930.124290
  0
LINE
  8
CSLAYER3
  6
CONTINUOUS
 62
     3
 10
5067.609699
 20
2930.124290
 11
5066.423715
 21
2931.013778
  0
LINE
  8
CSLAYER3
  6
CONTINUOUS
 62
     3
 10
5066.423715
 20
2931.013778
 11
5066.226051
 21
2932.199762
  0
LINE
  8
CSLAYER3
  6
CONTINUOUS
 62
     3
 10
5068.696851
 20
2931.507938
 11
5070.761341
 21
2931.343218
  0
LINE
  8
CSLAYER3
  6
CONTINUOUS
 62
     3
 10
5070.761341
 20
2931.343218
 11
5073.462749
 21
2931.540882
  0
LINE
  8
CSLAYER3
  6
CONTINUOUS
 62
     3
 10
5073.462749
 20
2931.540882
 11
5077.284252
 21
2931.409106
  0
LINE
  8
CSLAYER3
  6
CONTINUOUS
 62
     3
 10
5077.284252
 20
2931.409106
 11
5079.787996
 21
2930.882002
  0
LINE
  8
CSLAYER3
  6
CONTINUOUS
 62
     3
 10
5079.787996
 20
2930.882002
 11
5081.764635
 21
2929.432466
  0
LINE
  8
CSLAYER3
  6
CONTINUOUS
 62
     3
 10
5081.764635
 20
2929.432466
 11
5083.477723
 21
2926.796947
  0
LINE
  8
CSLAYER3
  6
CONTINUOUS
 62
     3
 10
5083.477723
 20
2926.796947
 11
5083.938939
 21
2923.897875
  0
LINE
  8
CSLAYER3
  6
CONTINUOUS
 62
     3
 10
5083.938939
 20
2923.897875
 11
5083.873051
 21
2920.932915
  0
LINE
  8
CSLAYER3
  6
CONTINUOUS
 62
     3
 10
5083.873051
 20
2920.932915
 11
5082.884731
 21
2918.692724
  0
LINE
  8
CSLAYER3
  6
CONTINUOUS
 62
     3
 10
5082.884731
 20
2918.692724
 11
5081.764635
 21
2917.374964
  0
LINE
  8
CSLAYER3
  6
CONTINUOUS
 62
     3
 10
5081.764635
 20
2917.374964
 11
5079.705636
 21
2916.073676
  0
LINE
  8
CSLAYER3
  6
CONTINUOUS
 62
     3
 10
5079.705636
 20
2916.073676
 11
5080.430404
 21
2913.108717
  0
LINE
  8
CSLAYER3
  6
CONTINUOUS
 62
     3
 10
5080.430404
 20
2913.108717
 11
5082.538819
 21
2906.915246
  0
LINE
  8
CSLAYER3
  6
CONTINUOUS
 62
     3
 10
5082.538819
 20
2906.915246
 11
5084.317795
 21
2902.434862
  0
LINE
  8
CSLAYER3
  6
CONTINUOUS
 62
     3
 10
5084.317795
 20
2902.434862
 11
5085.882635
 21
2899.321655
  0
LINE
  8
CSLAYER3
  6
CONTINUOUS
 62
     3
 10
5085.882635
 20
2899.321655
 11
5087.266283
 21
2898.135671
  0
LINE
  8
CSLAYER3
  6
CONTINUOUS
 62
     3
 10
5087.266283
 20
2898.135671
 11
5088.913482
 21
2897.345015
  0
LINE
  8
CSLAYER3
  6
CONTINUOUS
 62
     3
 10
5088.913482
 20
2897.345015
 11
5090.692458
 21
2895.500151
  0
LINE
  8
CSLAYER3
  6
CONTINUOUS
 62
     3
 10
5090.692458
 20
2895.500151
 11
5089.242922
 21
2895.302487
  0
LINE
  8
CSLAYER3
  6
CONTINUOUS
 62
     3
 10
5089.242922
 20
2895.302487
 11
5087.727499
 21
2895.631927
  0
LINE
  8
CSLAYER3
  6
CONTINUOUS
 62
     3
 10
5087.727499
 20
2895.631927
 11
5086.014411
 21
2896.554359
  0
LINE
  8
CSLAYER3
  6
CONTINUOUS
 62
     3
 10
5086.014411
 20
2896.554359
 11
5084.498987
 21
2897.608567
  0
LINE
  8
CSLAYER3
  6
CONTINUOUS
 62
     3
 10
5084.498987
 20
2897.608567
 11
5082.654123
 21
2897.740343
  0
LINE
  8
CSLAYER3
  6
CONTINUOUS
 62
     3
 10
5082.654123
 20
2897.740343
 11
5081.468139
 21
2897.872119
  0
LINE
  8
CSLAYER3
  6
CONTINUOUS
 62
     3
 10
5081.468139
 20
2897.872119
 11
5080.611596
 21
2898.662775
  0
LINE
  8
CSLAYER3
  6
CONTINUOUS
 62
     3
 10
5080.611596
 20
2898.662775
 11
5080.875148
 21
2899.321655
  0
LINE
  8
CSLAYER3
  6
CONTINUOUS
 62
     3
 10
5080.875148
 20
2899.321655
 11
5081.863467
 21
2899.980535
  0
LINE
  8
CSLAYER3
  6
CONTINUOUS
 62
     3
 10
5081.863467
 20
2899.980535
 11
5080.348044
 21
2903.604374
  0
LINE
  8
CSLAYER3
  6
CONTINUOUS
 62
     3
 10
5080.348044
 20
2903.604374
 11
5078.898508
 21
2907.821205
  0
LINE
  8
CSLAYER3
  6
CONTINUOUS
 62
     3
 10
5078.898508
 20
2907.821205
 11
5077.317196
 21
2912.103925
  0
LINE
  8
CSLAYER3
  6
CONTINUOUS
 62
     3
 10
5077.317196
 20
2912.103925
 11
5076.328876
 21
2915.200660
  0
LINE
  8
CSLAYER3
  6
CONTINUOUS
 62
     3
 10
5076.328876
 20
2915.200660
 11
5074.286348
 21
2915.200660
  0
LINE
  8
CSLAYER3
  6
CONTINUOUS
 62
     3
 10
5074.286348
 20
2915.200660
 11
5074.088685
 21
2911.313269
  0
LINE
  8
CSLAYER3
  6
CONTINUOUS
 62
     3
 10
5074.088685
 20
2911.313269
 11
5074.220461
 21
2907.294101
  0
LINE
  8
CSLAYER3
  6
CONTINUOUS
 62
     3
 10
5074.220461
 20
2907.294101
 11
5074.549900
 21
2904.724470
  0
LINE
  8
CSLAYER3
  6
CONTINUOUS
 62
     3
 10
5074.549900
 20
2904.724470
 11
5075.142892
 21
2902.550166
  0
LINE
  8
CSLAYER3
  6
CONTINUOUS
 62
     3
 10
5075.142892
 20
2902.550166
 11
5075.735884
 21
2901.561846
  0
LINE
  8
CSLAYER3
  6
CONTINUOUS
 62
     3
 10
5075.735884
 20
2901.561846
 11
5076.328876
 21
2902.747830
  0
LINE
  8
CSLAYER3
  6
CONTINUOUS
 62
     3
 10
5076.328876
 20
2902.747830
 11
5077.053644
 21
2901.034742
  0
LINE
  8
CSLAYER3
  6
CONTINUOUS
 62
     3
 10
5077.053644
 20
2901.034742
 11
5076.131212
 21
2900.639414
  0
LINE
  8
CSLAYER3
  6
CONTINUOUS
 62
     3
 10
5076.131212
 20
2900.639414
 11
5073.495693
 21
2900.902966
  0
LINE
  8
CSLAYER3
  6
CONTINUOUS
 62
     3
 10
5073.495693
 20
2900.902966
 11
5071.387277
 21
2901.495958
  0
LINE
  8
CSLAYER3
  6
CONTINUOUS
 62
     3
 10
5071.387277
 20
2901.495958
 11
5070.333069
 21
2901.298294
  0
LINE
  8
CSLAYER3
  6
CONTINUOUS
 62
     3
 10
5070.333069
 20
2901.298294
 11
5069.278861
 21
2900.244086
  0
LINE
  8
CSLAYER3
  6
CONTINUOUS
 62
     3
 10
5069.278861
 20
2900.244086
 11
5068.713323
 21
2901.611262
  0
LINE
  8
CSLAYER3
  6
CONTINUOUS
 62
     3
 10
5074.138101
 20
2917.523212
 11
5074.269877
 21
2928.658282
  0
LINE
  8
CSLAYER3
  6
CONTINUOUS
 62
     3
 10
5074.269877
 20
2928.658282
 11
5075.851188
 21
2928.790058
  0
LINE
  8
CSLAYER3
  6
CONTINUOUS
 62
     3
 10
5075.851188
 20
2928.790058
 11
5077.498388
 21
2928.658282
  0
LINE
  8
CSLAYER3
  6
CONTINUOUS
 62
     3
 10
5077.498388
 20
2928.658282
 11
5078.684372
 21
2927.867626
  0
LINE
  8
CSLAYER3
  6
CONTINUOUS
 62
     3
 10
5078.684372
 20
2927.867626
 11
5079.738580
 21
2926.352203
  0
LINE
  8
CSLAYER3
  6
CONTINUOUS
 62
     3
 10
5079.738580
 20
2926.352203
 11
5080.068020
 21
2924.507339
  0
LINE
  8
CSLAYER3
  6
CONTINUOUS
 62
     3
 10
5080.068020
 20
2924.507339
 11
5080.002132
 21
2922.662475
  0
LINE
  8
CSLAYER3
  6
CONTINUOUS
 62
     3
 10
5080.002132
 20
2922.662475
 11
5079.475028
 21
2920.685836
  0
LINE
  8
CSLAYER3
  6
CONTINUOUS
 62
     3
 10
5079.475028
 20
2920.685836
 11
5078.750260
 21
2918.972748
  0
LINE
  8
CSLAYER3
  6
CONTINUOUS
 62
     3
 10
5078.750260
 20
2918.972748
 11
5077.300724
 21
2917.589100
  0
LINE
  8
CSLAYER3
  6
CONTINUOUS
 62
     3
 10
5077.300724
 20
2917.589100
 11
5076.048852
 21
2917.259660
  0
LINE
  8
CSLAYER3
  6
CONTINUOUS
 62
     3
 10
5076.048852
 20
2917.259660
 11
5074.138101
 21
2917.523212
  0
LINE
  8
CSLAYER3
  6
CONTINUOUS
 62
     3
 10
5085.840082
 20
2900.901594
 11
5085.576530
 21
2901.911876
  0
LINE
  8
CSLAYER3
  6
CONTINUOUS
 62
     3
 10
5085.576530
 20
2901.911876
 11
5086.498962
 21
2902.922159
  0
LINE
  8
CSLAYER3
  6
CONTINUOUS
 62
     3
 10
5086.498962
 20
2902.922159
 11
5087.245693
 21
2904.459545
  0
LINE
  8
CSLAYER3
  6
CONTINUOUS
 62
     3
 10
5087.245693
 20
2904.459545
 11
5087.481791
 21
2909.406635
  0
LINE
  8
CSLAYER3
  6
CONTINUOUS
 62
     3
 10
5087.481791
 20
2909.406635
 11
5087.382959
 21
2918.499178
  0
LINE
  8
CSLAYER3
  6
CONTINUOUS
 62
     3
 10
5087.382959
 20
2918.499178
 11
5086.592303
 21
2925.516249
  0
LINE
  8
CSLAYER3
  6
CONTINUOUS
 62
     3
 10
5086.592303
 20
2925.516249
 11
5085.332196
 21
2929.000076
  0
LINE
  8
CSLAYER3
  6
CONTINUOUS
 62
     3
 10
5085.332196
 20
2929.000076
 11
5084.047380
 21
2930.779052
  0
LINE
  8
CSLAYER3
  6
CONTINUOUS
 62
     3
 10
5087.111171
 20
2931.470876
 11
5091.360947
 21
2931.273212
  0
LINE
  8
CSLAYER3
  6
CONTINUOUS
 62
     3
 10
5091.360947
 20
2931.273212
 11
5095.413058
 21
2931.075548
  0
LINE
  8
CSLAYER3
  6
CONTINUOUS
 62
     3
 10
5095.413058
 20
2931.075548
 11
5098.180354
 21
2931.075548
  0
LINE
  8
CSLAYER3
  6
CONTINUOUS
 62
     3
 10
5098.180354
 20
2931.075548
 11
5100.354657
 21
2931.767372
  0
LINE
  8
CSLAYER3
  6
CONTINUOUS
 62
     3
 10
5100.354657
 20
2931.767372
 11
5101.046481
 21
2929.593068
  0
LINE
  8
CSLAYER3
  6
CONTINUOUS
 62
     3
 10
5101.046481
 20
2929.593068
 11
5100.058161
 21
2926.924605
  0
LINE
  8
CSLAYER3
  6
CONTINUOUS
 62
     3
 10
5100.058161
 20
2926.924605
 11
5098.872178
 21
2925.244461
  0
LINE
  8
CSLAYER3
  6
CONTINUOUS
 62
     3
 10
5098.872178
 20
2925.244461
 11
5098.575682
 21
2927.319933
  0
LINE
  8
CSLAYER3
  6
CONTINUOUS
 62
     3
 10
5098.575682
 20
2927.319933
 11
5096.796706
 21
2929.098908
  0
LINE
  8
CSLAYER3
  6
CONTINUOUS
 62
     3
 10
5096.796706
 20
2929.098908
 11
5094.721234
 21
2929.197740
  0
LINE
  8
CSLAYER3
  6
CONTINUOUS
 62
     3
 10
5094.721234
 20
2929.197740
 11
5091.756275
 21
2929.296572
  0
LINE
  8
CSLAYER3
  6
CONTINUOUS
 62
     3
 10
5090.866787
 20
2920.599358
 11
5093.831746
 21
2921.093517
  0
LINE
  8
CSLAYER3
  6
CONTINUOUS
 62
     3
 10
5093.831746
 20
2921.093517
 11
5096.302546
 21
2921.192349
  0
LINE
  8
CSLAYER3
  6
CONTINUOUS
 62
     3
 10
5096.302546
 20
2921.192349
 11
5098.180354
 21
2920.698190
  0
LINE
  8
CSLAYER3
  6
CONTINUOUS
 62
     3
 10
5098.180354
 20
2920.698190
 11
5098.279186
 21
2919.314542
  0
LINE
  8
CSLAYER3
  6
CONTINUOUS
 62
     3
 10
5098.279186
 20
2919.314542
 11
5097.290866
 21
2916.744910
  0
LINE
  8
CSLAYER3
  6
CONTINUOUS
 62
     3
 10
5097.290866
 20
2916.744910
 11
5096.994370
 21
2914.669438
  0
LINE
  8
CSLAYER3
  6
CONTINUOUS
 62
     3
 10
5095.610722
 20
2917.337902
 11
5094.128242
 21
2918.622718
  0
LINE
  8
CSLAYER3
  6
CONTINUOUS
 62
     3
 10
5094.128242
 20
2918.622718
 11
5092.349267
 21
2919.314542
  0
LINE
  8
CSLAYER3
  6
CONTINUOUS
 62
     3
 10
5092.349267
 20
2919.314542
 11
5090.965619
 21
2919.215710
  0
LINE
  8
CSLAYER3
  6
CONTINUOUS
 62
     3
 10
5090.965619
 20
2919.215710
 11
5090.891495
 21
2905.749852
  0
LINE
  8
CSLAYER3
  6
CONTINUOUS
 62
     3
 10
5090.891495
 20
2905.749852
 11
5091.023271
 21
2901.862460
  0
LINE
  8
CSLAYER3
  6
CONTINUOUS
 62
     3
 10
5091.023271
 20
2901.862460
 11
5092.209255
 21
2901.664796
  0
LINE
  8
CSLAYER3
  6
CONTINUOUS
 62
     3
 10
5092.209255
 20
2901.664796
 11
5094.449446
 21
2901.203580
  0
LINE
  8
CSLAYER3
  6
CONTINUOUS
 62
     3
 10
5094.449446
 20
2901.203580
 11
5095.964870
 21
2900.610588
  0
LINE
  8
CSLAYER3
  6
CONTINUOUS
 62
     3
 10
5095.964870
 20
2900.610588
 11
5098.205062
 21
2899.622269
  0
LINE
  8
CSLAYER3
  6
CONTINUOUS
 62
     3
 10
5098.205062
 20
2899.622269
 11
5099.984037
 21
2898.568061
  0
LINE
  8
CSLAYER3
  6
CONTINUOUS
 62
     3
 10
5099.984037
 20
2898.568061
 11
5101.565349
 21
2898.436285
  0
LINE
  8
CSLAYER3
  6
CONTINUOUS
 62
     3
 10
5101.565349
 20
2898.436285
 11
5102.356005
 21
2899.292829
  0
LINE
  8
CSLAYER3
  6
CONTINUOUS
 62
     3
 10
5102.356005
 20
2899.292829
 11
5102.421893
 21
2900.676476
  0
LINE
  8
CSLAYER3
  6
CONTINUOUS
 62
     3
 10
5102.421893
 20
2900.676476
 11
5103.607877
 21
2900.347036
  0
LINE
  8
CSLAYER3
  6
CONTINUOUS
 62
     3
 10
5103.607877
 20
2900.347036
 11
5105.518629
 21
2900.940028
  0
LINE
  8
CSLAYER3
  6
CONTINUOUS
 62
     3
 10
5105.518629
 20
2900.940028
 11
5106.375172
 21
2900.808252
  0
LINE
  8
CSLAYER3
  6
CONTINUOUS
 62
     3
 10
5106.375172
 20
2900.808252
 11
5105.782181
 21
2899.292829
  0
LINE
  8
CSLAYER3
  6
CONTINUOUS
 62
     3
 10
5105.782181
 20
2899.292829
 11
5104.991525
 21
2897.316189
  0
LINE
  8
CSLAYER3
  6
CONTINUOUS
 62
     3
 10
5104.991525
 20
2897.316189
 11
5103.541989
 21
2896.196093
  0
LINE
  8
CSLAYER3
  6
CONTINUOUS
 62
     3
 10
5103.541989
 20
2896.196093
 11
5101.433573
 21
2895.800765
  0
LINE
  8
CSLAYER3
  6
CONTINUOUS
 62
     3
 10
5101.433573
 20
2895.800765
 11
5098.798054
 21
2895.932541
  0
LINE
  8
CSLAYER3
  6
CONTINUOUS
 62
     3
 10
5098.798054
 20
2895.932541
 11
5097.084966
 21
2896.657309
  0
LINE
  8
CSLAYER3
  6
CONTINUOUS
 62
     3
 10
5097.084966
 20
2896.657309
 11
5094.449446
 21
2897.711517
  0
LINE
  8
CSLAYER3
  6
CONTINUOUS
 62
     3
 10
5094.449446
 20
2897.711517
 11
5091.352711
 21
2899.424605
  0
LINE
  8
CSLAYER3
  6
CONTINUOUS
 62
     3
 10
5091.352711
 20
2899.424605
 11
5089.244295
 21
2900.347036
  0
LINE
  8
CSLAYER3
  6
CONTINUOUS
 62
     3
 10
5089.244295
 20
2900.347036
 11
5087.267655
 21
2900.808252
  0
LINE
  8
CSLAYER3
  6
CONTINUOUS
 62
     3
 10
5087.267655
 20
2900.808252
 11
5085.840082
 21
2900.901594
  0
LINE
  8
CSLAYER3
  6
CONTINUOUS
 62
     3
 10
5057.219643
 20
2911.126929
 11
5057.417307
 21
2914.487217
  0
LINE
  8
CSLAYER3
  6
CONTINUOUS
 62
     3
 10
5057.417307
 20
2914.487217
 11
5058.010299
 21
2916.859185
  0
LINE
  8
CSLAYER3
  6
CONTINUOUS
 62
     3
 10
5058.010299
 20
2916.859185
 11
5058.504459
 21
2919.329984
  0
LINE
  8
CSLAYER3
  6
CONTINUOUS
 62
     3
 10
5058.504459
 20
2919.329984
 11
5058.899787
 21
2921.405456
  0
LINE
  8
CSLAYER3
  6
CONTINUOUS
 62
     3
 10
5058.899787
 20
2921.405456
 11
5059.492779
 21
2924.469247
  0
LINE
  8
CSLAYER3
  6
CONTINUOUS
 62
     3
 10
5059.492779
 20
2924.469247
 11
5060.184603
 21
2920.417136
  0
LINE
  8
CSLAYER3
  6
CONTINUOUS
 62
     3
 10
5060.184603
 20
2920.417136
 11
5060.777595
 21
2916.760353
  0
LINE
  8
CSLAYER3
  6
CONTINUOUS
 62
     3
 10
5060.777595
 20
2916.760353
 11
5061.370587
 21
2913.498897
  0
LINE
  8
CSLAYER3
  6
CONTINUOUS
 62
     3
 10
5061.370587
 20
2913.498897
 11
5060.283435
 21
2912.609409
  0
LINE
  8
CSLAYER3
  6
CONTINUOUS
 62
     3
 10
5060.283435
 20
2912.609409
 11
5058.702123
 21
2911.621089
  0
LINE
  8
CSLAYER3
  6
CONTINUOUS
 62
     3
 10
5058.702123
 20
2911.621089
 11
5057.120811
 21
2910.138610
  0
LINE
  8
CSLAYER3
  6
CONTINUOUS
 62
     3
 10
5057.120811
 20
2910.138610
 11
5057.219643
 21
2911.126929
  0
LINE
  8
CSLAYER3
  6
CONTINUOUS
 62
     3
 10
5087.111171
 20
2931.470876
 11
5084.047380
 21
2930.779052
  0
LINE
  8
CSLAYER3
  6
CONTINUOUS
 62
     3
 10
5068.696851
 20
2931.507938
 11
5066.226051
 21
2932.199762
  0
LINE
  8
CSLAYER3
  6
CONTINUOUS
 62
     3
 10
5051.155088
 20
2928.648216
 11
5052.242240
 21
2927.363400
  0
LINE
  8
CSLAYER3
  6
CONTINUOUS
 62
     3
 10
5010.778104
 20
2929.767854
 11
5012.705328
 21
2927.247639
  0
LINE
  8
CSLAYER3
  6
CONTINUOUS
 62
     3
 10
4938.238172
 20
2891.240767
 11
4940.176377
 21
2893.008762
  0
LINE
  8
CSLAYER3
  6
CONTINUOUS
 62
     3
 10
5091.756275
 20
2929.296572
 11
5090.062297
 21
2928.338368
  0
LINE
  8
CSLAYER3
  6
CONTINUOUS
 62
     3
 10
5090.062297
 20
2928.338368
 11
5090.423154
 21
2924.368941
  0
LINE
  8
CSLAYER3
  6
CONTINUOUS
 62
     3
 10
5090.423154
 20
2924.368941
 11
5090.866787
 21
2920.599358
  0
LINE
  8
CSLAYER3
  6
CONTINUOUS
 62
     3
 10
5095.610722
 20
2917.337902
 11
5096.994370
 21
2914.669438
  0
LINE
  8
CSLAYER3
  6
CONTINUOUS
 62
     3
 10
5068.846014
 20
2919.061514
 11
5067.363534
 21
2920.543993
  0
INSERT
  8
CSLAYER1
  2
BLKF0006
 10
0.0
 20
0.0
 30
0.0
  0
INSERT
  8
CSLAYER1
  2
BLKF0007
 10
0.0
 20
0.0
 30
0.0
  0
INSERT
  8
CSLAYER1
  2
BLKF0008
 10
0.0
 20
0.0
 30
0.0
  0
LINE
  8
CSLAYER3
  6
CONTINUOUS
 62
     3
 10
4636.348120
 20
2631.448633
 11
4500.553678
 21
2631.448633
  0
LINE
  8
CSLAYER3
  6
CONTINUOUS
 62
     3
 10
4471.348120
 20
2606.970254
 11
4471.348120
 21
2604.003990
  0
LINE
  8
CSLAYER3
  6
CONTINUOUS
 62
     3
 10
4487.252404
 20
2584.427854
 11
4519.104267
 21
2577.763812
  0
LINE
  8
CSLAYER3
  6
CONTINUOUS
 62
     3
 10
4482.598806
 20
2624.954955
 11
4491.804363
 21
2629.433334
  0
LINE
  8
CSLAYER3
  6
CONTINUOUS
 62
     3
 10
4523.248030
 20
2577.340006
 11
4762.334526
 21
2577.914372
  0
CIRCLE
  8
CSLAYER3
  6
CONTINUOUS
 62
     3
 10
4717.548441
 20
2577.404926
 40
12.500000
  0
CIRCLE
  8
CSLAYER3
  6
CONTINUOUS
 62
     3
 10
4717.548441
 20
2577.404926
 40
1.500000
  0
ARC
  8
CSLAYER3
  6
CONTINUOUS
 62
     3
 10
4491.348120
 20
2604.003990
 40
20.000000
 50
180.000000
 51
258.183038
  0
ARC
  8
CSLAYER3
  6
CONTINUOUS
 62
     3
 10
4491.348120
 20
2606.970254
 40
20.000000
 50
115.942295
 51
180.000000
  0
ARC
  8
CSLAYER3
  6
CONTINUOUS
 62
     3
 10
4500.553678
 20
2611.448633
 40
20.000000
 50
90.000000
 51
115.942295
  0
ARC
  8
CSLAYER3
  6
CONTINUOUS
 62
     3
 10
4523.199984
 20
2597.339948
 40
20.000000
 50
258.183038
 51
270.137644
  0
ARC
  8
CSLAYER3
  6
CONTINUOUS
 62
     3
 10
4481.348120
 20
3318.958860
 40
10.000000
 50
90.000000
 51
180.000000
  0
ARC
  8
CSLAYER3
  6
CONTINUOUS
 62
     3
 10
4481.348120
 20
3298.958860
 40
10.000000
 50
180.000000
 51
270.000000
  0
INSERT
  8
CSLAYER1
  2
BLKF0009
 10
0.0
 20
0.0
 30
0.0
  0
LINE
  8
CSLAYER3
  6
CONTINUOUS
 62
     3
 10
4658.551167
 20
3681.197565
 11
4810.528619
 21
3681.197565
  0
INSERT
  8
CSLAYER1
  2
BLKF0010
 10
0.0
 20
0.0
 30
0.0
  0
LINE
  8
CSLAYER3
  6
CONTINUOUS
 62
     3
 10
4810.528619
 20
3306.958860
 11
5041.326043
 21
3306.958860
  0
LINE
  8
CSLAYER3
  6
CONTINUOUS
 62
     3
 10
4810.528619
 20
3310.958860
 11
5041.326043
 21
3310.958860
  0
LINE
  8
CSLAYER3
  6
CONTINUOUS
 62
     3
 10
5175.528619
 20
3306.958860
 11
5175.528619
 21
3310.958860
  0
LINE
  8
CSLAYER3
  6
CONTINUOUS
 62
     3
 10
4814.173466
 20
2668.265226
 11
5125.528619
 21
2668.265226
  0
LINE
  8
CSLAYER3
  6
CONTINUOUS
 62
     3
 10
5055.528619
 20
2668.265226
 11
5055.528619
 21
2662.265226
  0
LINE
  8
CSLAYER3
  6
CONTINUOUS
 62
     3
 10
5055.528619
 20
2662.265226
 11
5125.528619
 21
2662.265226
  0
LINE
  8
CSLAYER3
  6
CONTINUOUS
 62
     3
 10
5175.528619
 20
2662.265226
 11
5129.142359
 21
2662.265226
  0
LINE
  8
CSLAYER3
  6
CONTINUOUS
 62
     3
 10
5128.433541
 20
2668.265226
 11
5175.528619
 21
2668.265226
  0
LINE
  8
CSLAYER3
  6
CONTINUOUS
 62
     3
 10
5125.528619
 20
2665.798032
 11
5128.433541
 21
2668.265226
  0
LINE
  8
CSLAYER3
  6
CONTINUOUS
 62
     3
 10
5125.528619
 20
2665.798032
 11
5129.142359
 21
2662.265226
  0
LINE
  8
CSLAYER3
  6
CONTINUOUS
 62
     3
 10
5125.528619
 20
2672.265226
 11
5175.528619
 21
2701.433756
  0
LINE
  8
CSLAYER3
  6
CONTINUOUS
 62
     3
 10
5125.528619
 20
2662.265226
 11
5175.528619
 21
2614.654105
  0
LINE
  8
CSLAYER3
  6
CONTINUOUS
 62
     3
 10
5128.433541
 20
2668.265226
 11
5128.433541
 21
2677.254284
  0
LINE
  8
CSLAYER3
  6
CONTINUOUS
 62
     3
 10
5128.433541
 20
2677.254284
 11
5125.277694
 21
2677.817169
  0
LINE
  8
CSLAYER3
  6
CONTINUOUS
 62
     3
 10
5122.804468
 20
2680.770558
 11
5122.804468
 21
2682.077957
  0
LINE
  8
CSLAYER3
  6
CONTINUOUS
 62
     3
 10
5125.761615
 20
2685.077651
 11
5130.164945
 21
2685.140556
  0
LINE
  8
CSLAYER3
  6
CONTINUOUS
 62
     3
 10
5132.505626
 20
2684.069589
 11
5145.771328
 21
2668.265226
  0
LINE
  8
CSLAYER3
  6
CONTINUOUS
 62
     3
 10
5175.528619
 20
2668.265226
 11
5175.528619
 21
2662.265226
  0
ARC
  8
CSLAYER3
  6
CONTINUOUS
 62
     3
 10
5125.804468
 20
2682.077957
 40
3.000000
 50
90.818455
 51
180.000000
  0
ARC
  8
CSLAYER3
  6
CONTINUOUS
 62
     3
 10
5125.804468
 20
2680.770558
 40
3.000000
 50
180.000000
 51
259.886928
  0
ARC
  8
CSLAYER3
  6
CONTINUOUS
 62
     3
 10
5130.207798
 20
2682.140862
 40
3.000000
 50
40.009076
 51
90.818455
  0
CIRCLE
  8
CSLAYER3
  6
CONTINUOUS
 62
     3
 10
5126.223525
 20
2682.127072
 40
0.829209
  0
INSERT
  8
CSLAYER1
  2
BLKF0011
 10
0.0
 20
0.0
 30
0.0
  0
INSERT
  8
CSLAYER1
  2
BLKF0012
 10
0.0
 20
0.0
 30
0.0
  0
LINE
  8
CSLAYER3
  6
CONTINUOUS
 62
     3
 10
4810.528619
 20
3308.958860
 11
5041.326043
 21
3308.958860
  0
LINE
  8
CSLAYER3
  6
CONTINUOUS
 62
     3
 10
5041.326043
 20
3311.958860
 11
5125.528619
 21
3311.958860
  0
LINE
  8
CSLAYER3
  6
CONTINUOUS
 62
     3
 10
5041.326043
 20
3311.958860
 11
5041.326043
 21
3305.958860
  0
LINE
  8
CSLAYER3
  6
CONTINUOUS
 62
     3
 10
5041.326043
 20
3305.958860
 11
5125.528619
 21
3305.958860
  0
LINE
  8
CSLAYER3
  6
CONTINUOUS
 62
     3
 10
5125.528619
 20
3308.958860
 11
5128.721490
 21
3311.958860
  0
LINE
  8
CSLAYER3
  6
CONTINUOUS
 62
     3
 10
5128.721490
 20
3311.958860
 11
5175.528619
 21
3311.958860
  0
LINE
  8
CSLAYER3
  6
CONTINUOUS
 62
     3
 10
5125.528619
 20
3308.958860
 11
5128.721490
 21
3305.958860
  0
LINE
  8
CSLAYER3
  6
CONTINUOUS
 62
     3
 10
5128.721490
 20
3305.958860
 11
5175.528619
 21
3305.958860
  0
ENDSEC
  0
EOF
