  0
SECTION
  2
HEADER
  9
$ACADVER
  1
AC1006
  9
$INSBASE
 10
3186.476734
 20
2802.929892
 30
0.0
  9
$EXTMIN
 10
3186.476734
 20
2802.929892
  9
$EXTMAX
 10
5571.369710
 20
4489.389925
  9
$LIMMIN
 10
3186.476734
 20
2802.929892
  9
$LIMMAX
 10
5571.369710
 20
4489.389925
  9
$VIEWCTR
 10
4378.923222
 20
3646.159909
  9
$VIEWSIZE
 40
1686.460033
  9
$SNAPMODE
 70
     0
  9
$SNAPUNIT
 10
1.0
 20
1.0
  9
$SNAPBASE
 10
0.0
 20
0.0
  9
$SNAPANG
 50
0.0
  9
$SNAPSTYLE
 70
     0
  9
$SNAPISOPAIR
 70
     0
  9
$GRIDMODE
 70
     0
  9
$GRIDUNIT
 10
0.0
 20
0.0
  9
$ORTHOMODE
 70
     0
  9
$REGENMODE
 70
     1
  9
$FILLMODE
 70
     1
  9
$QTEXTMODE
 70
     0
  9
$DRAGMODE
 70
     2
  9
$LTSCALE
 40
15.000000
  9
$OSMODE
 70
     0
  9
$ATTMODE
 70
     1
  9
$TEXTSIZE
 40
0.2
  9
$TRACEWID
 40
0.05
  9
$TEXTSTYLE
  7
STANDARD
  9
$CLAYER
  8
CSLAYER3
  9
$CELTYPE
  6
BYLAYER
  9
$CECOLOR
 62
   256
  9
$DIMSCALE
 40
1.0
  9
$DIMASZ
 40
0.18
  9
$DIMEXO
 40
0.0625
  9
$DIMDLI
 40
0.38
  9
$DIMRND
 40
0.0
  9
$DIMDLE
 40
0.0
  9
$DIMEXE
 40
0.18
  9
$DIMTP
 40
0.0
  9
$DIMTM
 40
0.0
  9
$DIMTXT
 40
0.18
  9
$DIMCEN
 40
0.09
  9
$DIMTSZ
 40
0.0
  9
$DIMTOL
 70
     0
  9
$DIMLIM
 70
     0
  9
$DIMTIH
 70
     1
  9
$DIMTOH
 70
     1
  9
$DIMSE1
 70
     0
  9
$DIMSE2
 70
     0
  9
$DIMTAD
 70
     0
  9
$DIMZIN
 70
     0
  9
$DIMBLK
  1

  9
$LUNITS
 70
     2
  9
$LUPREC
 70
     4
  9
$AXISMODE
 70
     0
  9
$AXISUNIT
 10
0.0
 20
0.0
  9
$SKETCHINC
 40
0.1
  9
$FILLETRAD
 40
0.0
  9
$AUNITS
 70
     0
  9
$AUPREC
 70
     0
  9
$MENU
  1
ACAD
  9
$ELEVATION
 40
0.0
  9
$THICKNESS
 40
0.0
  9
$VIEWDIR
 10
0.0
 20
0.0
 30
1.0
  9
$LIMCHECK
 70
     0
  9
$BLIPMODE
 70
     1
  9
$CHAMFERA
 40
0.0
  9
$CHAMFERB
 40
0.0
  9
$FASTZOOM
 70
     1
  9
$SKPOLY
 70
     0
  9
$TDCREATE
 40
2453281.000000
  9
$TDUPDATE
 40
2453281.000000
  9
$TDINDWG
 40
0.0
  9
$TDUSRTIMER
 40
0.0
  9
$USRTIMER
 70
     1
  9
$ANGBASE
 50
0.0
  9
$ANGDIR
 70
     0
  9
$PDMODE
 70
     0
  9
$PDSIZE
 40
0.0
  9
$PLINEWID
 40
0.0
  9
$COORDS
 70
     0
  9
$USERI1
 70
     0
  9
$USERI2
 70
     0
  9
$USERI3
 70
     0
  9
$USERI4
 70
     0
  9
$USERI5
 70
     0
  9
$USERR1
 40
0.0
  9
$USERR2
 40
0.0
  9
$USERR3
 40
0.0
  9
$USERR4
 40
0.0
  9
$USERR5
 40
0.0
  0
ENDSEC
  0
SECTION
  2
TABLES
  0
TABLE
  2
LTYPE
 70
     9
  0
LTYPE
  2
CONTINUOUS
 70
    64
  3
Solid line
 72
    65
 73
     0
 40
0.0
  0
LTYPE
  2
DASHED
 70
    64
  3
__ __ __ __ __ __ __ __ __ __ __ __ __ __ __
 72
    65
 73
     2
 40
0.75
 49
0.5
 49
-0.25
  0
LTYPE
  2
HIDDEN
 70
    64
  3
_ _ _ _ _ _ _ _ _ _ _ _ _ _ _ _ _ _ _ _ _ _ _
 72
    65
 73
     2
 40
0.375
 49
0.25
 49
-0.125
  0
LTYPE
  2
DOT
 70
    64
  3
...............................................
 72
    65
 73
     2
 40
0.25
 49
0.0
 49
-0.25
  0
LTYPE
  2
DASHDOT
 70
    64
  3
__ . __ . __ . __ . __ . __ . __ . __ . __ . __
 72
    65
 73
     4
 40
1.0
 49
0.5
 49
-0.25
 49
0.0
 49
-0.25
  0
LTYPE
  2
DIVIDE
 70
    64
  3
__ . . __ . . __ . . __ . . __ . . __ . . __
 72
    65
 73
     6
 40
1.25
 49
0.5
 49
-0.25
 49
0.0
 49
-0.25
 49
0.0
 49
-0.25
  0
LTYPE
  2
CENTER
 70
    64
  3
____ _ ____ _ ____ _ ____ _ ____ _ ____ _ ____ 
 72
    65
 73
     4
 40
2.0
 49
1.25
 49
-0.25
 49
0.25
 49
-0.25
  0
LTYPE
  2
PHANTOM
 70
    64
  3
______  __  __  ______  __  __  ______  __  __ 
 72
    65
 73
     6
 40
2.5
 49
1.25
 49
-0.25
 49
0.25
 49
-0.25
 49
0.25
 49
-0.25
  0
LTYPE
  2
BORDER
 70
    64
  3
__ __ . __ __ . __ __ . __ __ . __ __ . __ __ .
 72
    65
 73
     6
 40
1.75
 49
0.5
 49
-0.25
 49
0.5
 49
-0.25
 49
0.0
 49
-0.25
  0
ENDTAB
  0
TABLE
  2
LAYER
 70
    16
  0
LAYER
  2
CSLAYER1
 70
    64
 62
     7
  6
CONTINUOUS
  0
LAYER
  2
CSLAYER2
 70
    64
 62
     7
  6
CONTINUOUS
  0
LAYER
  2
CSLAYER3
 70
    64
 62
     7
  6
CONTINUOUS
  0
LAYER
  2
CSLAYER4
 70
    64
 62
     7
  6
CONTINUOUS
  0
LAYER
  2
CSLAYER5
 70
    64
 62
     7
  6
CONTINUOUS
  0
LAYER
  2
CSLAYER6
 70
    64
 62
     7
  6
CONTINUOUS
  0
LAYER
  2
CSLAYER7
 70
    64
 62
     7
  6
CONTINUOUS
  0
LAYER
  2
CSLAYER8
 70
    64
 62
     7
  6
CONTINUOUS
  0
LAYER
  2
CSLAYER9
 70
    64
 62
     7
  6
CONTINUOUS
  0
LAYER
  2
CSLAYER10
 70
    64
 62
     7
  6
CONTINUOUS
  0
LAYER
  2
CSLAYER11
 70
    64
 62
     7
  6
CONTINUOUS
  0
LAYER
  2
CSLAYER12
 70
    64
 62
     7
  6
CONTINUOUS
  0
LAYER
  2
CSLAYER13
 70
    64
 62
     7
  6
CONTINUOUS
  0
LAYER
  2
CSLAYER14
 70
    64
 62
     7
  6
CONTINUOUS
  0
LAYER
  2
CSLAYER15
 70
    64
 62
     7
  6
CONTINUOUS
  0
LAYER
  2
CSLAYER16
 70
    64
 62
     7
  6
CONTINUOUS
  0
ENDTAB
  0
TABLE
  2
STYLE
 70
     1
  0
STYLE
  2
FX_FONT
 70
     0
 40
1.0
 41
1.0
 50
0.0
 71
     0
 42
1.0
  3
monotxt
  4
bigfont
  0
ENDTAB
  0
TABLE
  2
VIEW
 70
     0
  0
ENDTAB
  0
ENDSEC
  0
SECTION
  2
BLOCKS
  0
BLOCK
  8
CSLAYER1
  2
BLKF0000
 70
   64
 10
0.0
 20
0.0
 30
0.0
  0
LINE
  8
CSLAYER3
  6
CONTINUOUS
 62
     3
 10
4060.358330
 20
3183.489738
 11
4060.358330
 21
3147.489738
  0
LINE
  8
CSLAYER3
  6
CONTINUOUS
 62
     3
 10
4063.358330
 20
3183.489738
 11
4063.358330
 21
3147.489738
  0
ARC
  8
CSLAYER3
  6
CONTINUOUS
 62
     3
 10
4056.396198
 20
3128.589865
 40
55.042661
 50
85.872112
 51
115.649405
  0
ARC
  8
CSLAYER3
  6
CONTINUOUS
 62
     3
 10
4038.950640
 20
3163.892058
 40
15.673951
 50
114.020871
 51
174.149555
  0
ARC
  8
CSLAYER3
  6
CONTINUOUS
 62
     3
 10
4056.396198
 20
3202.389610
 40
55.042661
 50
244.350595
 51
274.127888
  0
ARC
  8
CSLAYER3
  6
CONTINUOUS
 62
     3
 10
4038.950640
 20
3167.087417
 40
15.673951
 50
185.850445
 51
245.979129
  0
LINE
  8
CSLAYER3
  6
CONTINUOUS
 62
     3
 10
4243.358330
 20
3165.489738
 11
4088.883138
 21
3181.826095
  0
ARC
  8
CSLAYER3
  6
CONTINUOUS
 62
     3
 10
4057.332898
 20
2883.489738
 40
300.000000
 50
83.963185
 51
90.000000
  0
LINE
  8
CSLAYER3
  6
CONTINUOUS
 62
     3
 10
4243.358330
 20
3165.489738
 11
4088.883138
 21
3149.153380
  0
ARC
  8
CSLAYER3
  6
CONTINUOUS
 62
     3
 10
4057.332898
 20
3447.489738
 40
300.000000
 50
270.000000
 51
276.036815
  0
ENDBLK
  8
0
  0
BLOCK
  8
CSLAYER1
  2
BLKF0001
 70
   64
 10
0.0
 20
0.0
 30
0.0
  0
LINE
  8
CSLAYER3
  6
CONTINUOUS
 62
     3
 10
4246.373956
 20
3168.187552
 11
4089.198641
 21
3184.809459
  0
LINE
  8
CSLAYER3
  6
CONTINUOUS
 62
     3
 10
4243.358330
 20
3165.489738
 11
4088.883138
 21
3181.826095
  0
ARC
  8
CSLAYER3
  6
CONTINUOUS
 62
     3
 10
4057.332898
 20
2883.489738
 40
303.000000
 50
83.963185
 51
90.000000
  0
ARC
  8
CSLAYER3
  6
CONTINUOUS
 62
     3
 10
4056.396198
 20
3128.589865
 40
58.042661
 50
85.872112
 51
115.649405
  0
ARC
  8
CSLAYER3
  6
CONTINUOUS
 62
     3
 10
4038.950640
 20
3163.892058
 40
18.673951
 50
114.020871
 51
174.149555
  0
ARC
  8
CSLAYER3
  6
CONTINUOUS
 62
     3
 10
4057.332898
 20
3447.489738
 40
303.000000
 50
270.000000
 51
276.036815
  0
ARC
  8
CSLAYER3
  6
CONTINUOUS
 62
     3
 10
4056.396198
 20
3202.389610
 40
58.042661
 50
244.350595
 51
274.127888
  0
ARC
  8
CSLAYER3
  6
CONTINUOUS
 62
     3
 10
4038.950640
 20
3167.087417
 40
18.673951
 50
185.850445
 51
245.979129
  0
LINE
  8
CSLAYER3
  6
CONTINUOUS
 62
     3
 10
4246.373956
 20
3162.791923
 11
4089.198641
 21
3146.170016
  0
ENDBLK
  8
0
  0
BLOCK
  8
CSLAYER1
  2
BLKF0002
 70
   64
 10
0.0
 20
0.0
 30
0.0
  0
CIRCLE
  8
CSLAYER3
  6
CONTINUOUS
 62
     3
 10
4120.373956
 20
3165.183941
 40
10.000000
  0
LINE
  8
CSLAYER3
  6
CONTINUOUS
 62
     3
 10
4110.382679
 20
3164.766335
 11
4120.373956
 21
3164.766335
  0
LINE
  8
CSLAYER3
  6
CONTINUOUS
 62
     3
 10
4110.376324
 20
3164.966335
 11
4120.373956
 21
3164.966335
  0
LINE
  8
CSLAYER3
  6
CONTINUOUS
 62
     3
 10
4110.373971
 20
3165.166335
 11
4120.373956
 21
3165.166335
  0
LINE
  8
CSLAYER3
  6
CONTINUOUS
 62
     3
 10
4120.373956
 20
3165.366335
 11
4130.372292
 21
3165.366335
  0
LINE
  8
CSLAYER3
  6
CONTINUOUS
 62
     3
 10
4120.373956
 20
3165.566335
 11
4130.366642
 21
3165.566335
  0
LINE
  8
CSLAYER3
  6
CONTINUOUS
 62
     3
 10
4120.373956
 20
3165.766335
 11
4130.356982
 21
3165.766335
  0
LINE
  8
CSLAYER3
  6
CONTINUOUS
 62
     3
 10
4120.373956
 20
3165.966335
 11
4130.343302
 21
3165.966335
  0
LINE
  8
CSLAYER3
  6
CONTINUOUS
 62
     3
 10
4120.373956
 20
3166.166335
 11
4130.325584
 21
3166.166335
  0
LINE
  8
CSLAYER3
  6
CONTINUOUS
 62
     3
 10
4120.373956
 20
3166.366335
 11
4130.303807
 21
3166.366335
  0
LINE
  8
CSLAYER3
  6
CONTINUOUS
 62
     3
 10
4120.373956
 20
3166.566335
 11
4130.277944
 21
3166.566335
  0
LINE
  8
CSLAYER3
  6
CONTINUOUS
 62
     3
 10
4120.373956
 20
3166.766335
 11
4130.247964
 21
3166.766335
  0
LINE
  8
CSLAYER3
  6
CONTINUOUS
 62
     3
 10
4120.373956
 20
3166.966335
 11
4130.213827
 21
3166.966335
  0
LINE
  8
CSLAYER3
  6
CONTINUOUS
 62
     3
 10
4120.373956
 20
3167.166335
 11
4130.175492
 21
3167.166335
  0
LINE
  8
CSLAYER3
  6
CONTINUOUS
 62
     3
 10
4120.373956
 20
3167.366335
 11
4130.132909
 21
3167.366335
  0
LINE
  8
CSLAYER3
  6
CONTINUOUS
 62
     3
 10
4120.373956
 20
3167.566335
 11
4130.086021
 21
3167.566335
  0
LINE
  8
CSLAYER3
  6
CONTINUOUS
 62
     3
 10
4120.373956
 20
3167.766335
 11
4130.034765
 21
3167.766335
  0
LINE
  8
CSLAYER3
  6
CONTINUOUS
 62
     3
 10
4120.373956
 20
3167.966335
 11
4129.979073
 21
3167.966335
  0
LINE
  8
CSLAYER3
  6
CONTINUOUS
 62
     3
 10
4120.373956
 20
3168.166335
 11
4129.918867
 21
3168.166335
  0
LINE
  8
CSLAYER3
  6
CONTINUOUS
 62
     3
 10
4120.373956
 20
3168.366335
 11
4129.854060
 21
3168.366335
  0
LINE
  8
CSLAYER3
  6
CONTINUOUS
 62
     3
 10
4120.373956
 20
3168.566335
 11
4129.784557
 21
3168.566335
  0
LINE
  8
CSLAYER3
  6
CONTINUOUS
 62
     3
 10
4120.373956
 20
3168.766335
 11
4129.710254
 21
3168.766335
  0
LINE
  8
CSLAYER3
  6
CONTINUOUS
 62
     3
 10
4120.373956
 20
3168.966335
 11
4129.631034
 21
3168.966335
  0
LINE
  8
CSLAYER3
  6
CONTINUOUS
 62
     3
 10
4120.373956
 20
3169.166335
 11
4129.546771
 21
3169.166335
  0
LINE
  8
CSLAYER3
  6
CONTINUOUS
 62
     3
 10
4120.373956
 20
3169.366335
 11
4129.457324
 21
3169.366335
  0
LINE
  8
CSLAYER3
  6
CONTINUOUS
 62
     3
 10
4120.373956
 20
3169.566335
 11
4129.362539
 21
3169.566335
  0
LINE
  8
CSLAYER3
  6
CONTINUOUS
 62
     3
 10
4120.373956
 20
3169.766335
 11
4129.262244
 21
3169.766335
  0
LINE
  8
CSLAYER3
  6
CONTINUOUS
 62
     3
 10
4120.373956
 20
3169.966335
 11
4129.156251
 21
3169.966335
  0
LINE
  8
CSLAYER3
  6
CONTINUOUS
 62
     3
 10
4120.373956
 20
3170.166335
 11
4129.044351
 21
3170.166335
  0
LINE
  8
CSLAYER3
  6
CONTINUOUS
 62
     3
 10
4120.373956
 20
3170.366335
 11
4128.926312
 21
3170.366335
  0
LINE
  8
CSLAYER3
  6
CONTINUOUS
 62
     3
 10
4120.373956
 20
3170.566335
 11
4128.801876
 21
3170.566335
  0
LINE
  8
CSLAYER3
  6
CONTINUOUS
 62
     3
 10
4120.373956
 20
3170.766335
 11
4128.670755
 21
3170.766335
  0
LINE
  8
CSLAYER3
  6
CONTINUOUS
 62
     3
 10
4120.373956
 20
3170.966335
 11
4128.532627
 21
3170.966335
  0
LINE
  8
CSLAYER3
  6
CONTINUOUS
 62
     3
 10
4120.373956
 20
3171.166335
 11
4128.387130
 21
3171.166335
  0
LINE
  8
CSLAYER3
  6
CONTINUOUS
 62
     3
 10
4120.373956
 20
3171.366335
 11
4128.233854
 21
3171.366335
  0
LINE
  8
CSLAYER3
  6
CONTINUOUS
 62
     3
 10
4120.373956
 20
3171.566335
 11
4128.072335
 21
3171.566335
  0
LINE
  8
CSLAYER3
  6
CONTINUOUS
 62
     3
 10
4120.373956
 20
3171.766335
 11
4127.902043
 21
3171.766335
  0
LINE
  8
CSLAYER3
  6
CONTINUOUS
 62
     3
 10
4120.373956
 20
3171.966335
 11
4127.722366
 21
3171.966335
  0
LINE
  8
CSLAYER3
  6
CONTINUOUS
 62
     3
 10
4120.373956
 20
3172.166335
 11
4127.532599
 21
3172.166335
  0
LINE
  8
CSLAYER3
  6
CONTINUOUS
 62
     3
 10
4120.373956
 20
3172.366335
 11
4127.331916
 21
3172.366335
  0
LINE
  8
CSLAYER3
  6
CONTINUOUS
 62
     3
 10
4120.373956
 20
3172.566335
 11
4127.119344
 21
3172.566335
  0
LINE
  8
CSLAYER3
  6
CONTINUOUS
 62
     3
 10
4120.373956
 20
3172.766335
 11
4126.893718
 21
3172.766335
  0
LINE
  8
CSLAYER3
  6
CONTINUOUS
 62
     3
 10
4120.373956
 20
3172.966335
 11
4126.653633
 21
3172.966335
  0
LINE
  8
CSLAYER3
  6
CONTINUOUS
 62
     3
 10
4120.373956
 20
3173.166335
 11
4126.397359
 21
3173.166335
  0
LINE
  8
CSLAYER3
  6
CONTINUOUS
 62
     3
 10
4120.373956
 20
3173.366335
 11
4126.122732
 21
3173.366335
  0
LINE
  8
CSLAYER3
  6
CONTINUOUS
 62
     3
 10
4120.373956
 20
3173.566335
 11
4125.826980
 21
3173.566335
  0
LINE
  8
CSLAYER3
  6
CONTINUOUS
 62
     3
 10
4120.373956
 20
3173.766335
 11
4125.506452
 21
3173.766335
  0
LINE
  8
CSLAYER3
  6
CONTINUOUS
 62
     3
 10
4120.373956
 20
3173.966335
 11
4125.156168
 21
3173.966335
  0
LINE
  8
CSLAYER3
  6
CONTINUOUS
 62
     3
 10
4120.373956
 20
3174.166335
 11
4124.769021
 21
3174.166335
  0
LINE
  8
CSLAYER3
  6
CONTINUOUS
 62
     3
 10
4120.373956
 20
3174.366335
 11
4124.334213
 21
3174.366335
  0
LINE
  8
CSLAYER3
  6
CONTINUOUS
 62
     3
 10
4120.373956
 20
3174.566335
 11
4123.833823
 21
3174.566335
  0
LINE
  8
CSLAYER3
  6
CONTINUOUS
 62
     3
 10
4120.373956
 20
3174.766335
 11
4123.233628
 21
3174.766335
  0
LINE
  8
CSLAYER3
  6
CONTINUOUS
 62
     3
 10
4120.373956
 20
3174.966335
 11
4122.448749
 21
3174.966335
  0
LINE
  8
CSLAYER3
  6
CONTINUOUS
 62
     3
 10
4120.373956
 20
3175.166335
 11
4120.967090
 21
3175.166335
  0
LINE
  8
CSLAYER3
  6
CONTINUOUS
 62
     3
 10
4110.393046
 20
3164.566335
 11
4120.373956
 21
3164.566335
  0
LINE
  8
CSLAYER3
  6
CONTINUOUS
 62
     3
 10
4110.407436
 20
3164.366335
 11
4120.373956
 21
3164.366335
  0
LINE
  8
CSLAYER3
  6
CONTINUOUS
 62
     3
 10
4110.425867
 20
3164.166335
 11
4120.373956
 21
3164.166335
  0
LINE
  8
CSLAYER3
  6
CONTINUOUS
 62
     3
 10
4110.448361
 20
3163.966335
 11
4120.373956
 21
3163.966335
  0
LINE
  8
CSLAYER3
  6
CONTINUOUS
 62
     3
 10
4110.474946
 20
3163.766335
 11
4120.373956
 21
3163.766335
  0
LINE
  8
CSLAYER3
  6
CONTINUOUS
 62
     3
 10
4110.505656
 20
3163.566335
 11
4120.373956
 21
3163.566335
  0
LINE
  8
CSLAYER3
  6
CONTINUOUS
 62
     3
 10
4110.540528
 20
3163.366335
 11
4120.373956
 21
3163.366335
  0
LINE
  8
CSLAYER3
  6
CONTINUOUS
 62
     3
 10
4110.579607
 20
3163.166335
 11
4120.373956
 21
3163.166335
  0
LINE
  8
CSLAYER3
  6
CONTINUOUS
 62
     3
 10
4110.622945
 20
3162.966335
 11
4120.373956
 21
3162.966335
  0
LINE
  8
CSLAYER3
  6
CONTINUOUS
 62
     3
 10
4110.670597
 20
3162.766335
 11
4120.373956
 21
3162.766335
  0
LINE
  8
CSLAYER3
  6
CONTINUOUS
 62
     3
 10
4110.722628
 20
3162.566335
 11
4120.373956
 21
3162.566335
  0
LINE
  8
CSLAYER3
  6
CONTINUOUS
 62
     3
 10
4110.779109
 20
3162.366335
 11
4120.373956
 21
3162.366335
  0
LINE
  8
CSLAYER3
  6
CONTINUOUS
 62
     3
 10
4110.840119
 20
3162.166335
 11
4120.373956
 21
3162.166335
  0
LINE
  8
CSLAYER3
  6
CONTINUOUS
 62
     3
 10
4110.905745
 20
3161.966335
 11
4120.373956
 21
3161.966335
  0
LINE
  8
CSLAYER3
  6
CONTINUOUS
 62
     3
 10
4110.976085
 20
3161.766335
 11
4120.373956
 21
3161.766335
  0
LINE
  8
CSLAYER3
  6
CONTINUOUS
 62
     3
 10
4111.051246
 20
3161.566335
 11
4120.373956
 21
3161.566335
  0
LINE
  8
CSLAYER3
  6
CONTINUOUS
 62
     3
 10
4111.131343
 20
3161.366335
 11
4120.373956
 21
3161.366335
  0
LINE
  8
CSLAYER3
  6
CONTINUOUS
 62
     3
 10
4111.216509
 20
3161.166335
 11
4120.373956
 21
3161.166335
  0
LINE
  8
CSLAYER3
  6
CONTINUOUS
 62
     3
 10
4111.306884
 20
3160.966335
 11
4120.373956
 21
3160.966335
  0
LINE
  8
CSLAYER3
  6
CONTINUOUS
 62
     3
 10
4111.402626
 20
3160.766335
 11
4120.373956
 21
3160.766335
  0
LINE
  8
CSLAYER3
  6
CONTINUOUS
 62
     3
 10
4111.503910
 20
3160.566335
 11
4120.373956
 21
3160.566335
  0
LINE
  8
CSLAYER3
  6
CONTINUOUS
 62
     3
 10
4111.610927
 20
3160.366335
 11
4120.373956
 21
3160.366335
  0
LINE
  8
CSLAYER3
  6
CONTINUOUS
 62
     3
 10
4111.723891
 20
3160.166335
 11
4120.373956
 21
3160.166335
  0
LINE
  8
CSLAYER3
  6
CONTINUOUS
 62
     3
 10
4111.843036
 20
3159.966335
 11
4120.373956
 21
3159.966335
  0
LINE
  8
CSLAYER3
  6
CONTINUOUS
 62
     3
 10
4111.968627
 20
3159.766335
 11
4120.373956
 21
3159.766335
  0
LINE
  8
CSLAYER3
  6
CONTINUOUS
 62
     3
 10
4112.100957
 20
3159.566335
 11
4120.373956
 21
3159.566335
  0
LINE
  8
CSLAYER3
  6
CONTINUOUS
 62
     3
 10
4112.240355
 20
3159.366335
 11
4120.373956
 21
3159.366335
  0
LINE
  8
CSLAYER3
  6
CONTINUOUS
 62
     3
 10
4112.387191
 20
3159.166335
 11
4120.373956
 21
3159.166335
  0
LINE
  8
CSLAYER3
  6
CONTINUOUS
 62
     3
 10
4112.541882
 20
3158.966335
 11
4120.373956
 21
3158.966335
  0
LINE
  8
CSLAYER3
  6
CONTINUOUS
 62
     3
 10
4112.704906
 20
3158.766335
 11
4120.373956
 21
3158.766335
  0
LINE
  8
CSLAYER3
  6
CONTINUOUS
 62
     3
 10
4112.876804
 20
3158.566335
 11
4120.373956
 21
3158.566335
  0
LINE
  8
CSLAYER3
  6
CONTINUOUS
 62
     3
 10
4113.058202
 20
3158.366335
 11
4120.373956
 21
3158.366335
  0
LINE
  8
CSLAYER3
  6
CONTINUOUS
 62
     3
 10
4113.249827
 20
3158.166335
 11
4120.373956
 21
3158.166335
  0
LINE
  8
CSLAYER3
  6
CONTINUOUS
 62
     3
 10
4113.452528
 20
3157.966335
 11
4120.373956
 21
3157.966335
  0
LINE
  8
CSLAYER3
  6
CONTINUOUS
 62
     3
 10
4113.667308
 20
3157.766335
 11
4120.373956
 21
3157.766335
  0
LINE
  8
CSLAYER3
  6
CONTINUOUS
 62
     3
 10
4113.895370
 20
3157.566335
 11
4120.373956
 21
3157.566335
  0
LINE
  8
CSLAYER3
  6
CONTINUOUS
 62
     3
 10
4114.138169
 20
3157.366335
 11
4120.373956
 21
3157.366335
  0
LINE
  8
CSLAYER3
  6
CONTINUOUS
 62
     3
 10
4114.397503
 20
3157.166335
 11
4120.373956
 21
3157.166335
  0
LINE
  8
CSLAYER3
  6
CONTINUOUS
 62
     3
 10
4114.675627
 20
3156.966335
 11
4120.373956
 21
3156.966335
  0
LINE
  8
CSLAYER3
  6
CONTINUOUS
 62
     3
 10
4114.975446
 20
3156.766335
 11
4120.373956
 21
3156.766335
  0
LINE
  8
CSLAYER3
  6
CONTINUOUS
 62
     3
 10
4115.300804
 20
3156.566335
 11
4120.373956
 21
3156.566335
  0
LINE
  8
CSLAYER3
  6
CONTINUOUS
 62
     3
 10
4115.656984
 20
3156.366335
 11
4120.373956
 21
3156.366335
  0
LINE
  8
CSLAYER3
  6
CONTINUOUS
 62
     3
 10
4116.051597
 20
3156.166335
 11
4120.373956
 21
3156.166335
  0
LINE
  8
CSLAYER3
  6
CONTINUOUS
 62
     3
 10
4116.496361
 20
3155.966335
 11
4120.373956
 21
3155.966335
  0
LINE
  8
CSLAYER3
  6
CONTINUOUS
 62
     3
 10
4117.011115
 20
3155.766335
 11
4120.373956
 21
3155.766335
  0
LINE
  8
CSLAYER3
  6
CONTINUOUS
 62
     3
 10
4117.635041
 20
3155.566335
 11
4120.373956
 21
3155.566335
  0
LINE
  8
CSLAYER3
  6
CONTINUOUS
 62
     3
 10
4118.472742
 20
3155.366335
 11
4120.373956
 21
3155.366335
  0
ENDBLK
  8
0
  0
BLOCK
  8
CSLAYER1
  2
BLKF0003
 70
   64
 10
0.0
 20
0.0
 30
0.0
  0
CIRCLE
  8
CSLAYER3
  6
CONTINUOUS
 62
     3
 10
4120.373956
 20
3885.743922
 40
10.000000
  0
LINE
  8
CSLAYER3
  6
CONTINUOUS
 62
     3
 10
4110.382679
 20
3885.326316
 11
4120.373956
 21
3885.326316
  0
LINE
  8
CSLAYER3
  6
CONTINUOUS
 62
     3
 10
4110.376324
 20
3885.526316
 11
4120.373956
 21
3885.526316
  0
LINE
  8
CSLAYER3
  6
CONTINUOUS
 62
     3
 10
4110.373971
 20
3885.726316
 11
4120.373956
 21
3885.726316
  0
LINE
  8
CSLAYER3
  6
CONTINUOUS
 62
     3
 10
4120.373956
 20
3885.926316
 11
4130.372292
 21
3885.926316
  0
LINE
  8
CSLAYER3
  6
CONTINUOUS
 62
     3
 10
4120.373956
 20
3886.126316
 11
4130.366642
 21
3886.126316
  0
LINE
  8
CSLAYER3
  6
CONTINUOUS
 62
     3
 10
4120.373956
 20
3886.326316
 11
4130.356982
 21
3886.326316
  0
LINE
  8
CSLAYER3
  6
CONTINUOUS
 62
     3
 10
4120.373956
 20
3886.526316
 11
4130.343302
 21
3886.526316
  0
LINE
  8
CSLAYER3
  6
CONTINUOUS
 62
     3
 10
4120.373956
 20
3886.726316
 11
4130.325584
 21
3886.726316
  0
LINE
  8
CSLAYER3
  6
CONTINUOUS
 62
     3
 10
4120.373956
 20
3886.926316
 11
4130.303807
 21
3886.926316
  0
LINE
  8
CSLAYER3
  6
CONTINUOUS
 62
     3
 10
4120.373956
 20
3887.126316
 11
4130.277944
 21
3887.126316
  0
LINE
  8
CSLAYER3
  6
CONTINUOUS
 62
     3
 10
4120.373956
 20
3887.326316
 11
4130.247964
 21
3887.326316
  0
LINE
  8
CSLAYER3
  6
CONTINUOUS
 62
     3
 10
4120.373956
 20
3887.526316
 11
4130.213827
 21
3887.526316
  0
LINE
  8
CSLAYER3
  6
CONTINUOUS
 62
     3
 10
4120.373956
 20
3887.726316
 11
4130.175492
 21
3887.726316
  0
LINE
  8
CSLAYER3
  6
CONTINUOUS
 62
     3
 10
4120.373956
 20
3887.926316
 11
4130.132909
 21
3887.926316
  0
LINE
  8
CSLAYER3
  6
CONTINUOUS
 62
     3
 10
4120.373956
 20
3888.126316
 11
4130.086021
 21
3888.126316
  0
LINE
  8
CSLAYER3
  6
CONTINUOUS
 62
     3
 10
4120.373956
 20
3888.326316
 11
4130.034765
 21
3888.326316
  0
LINE
  8
CSLAYER3
  6
CONTINUOUS
 62
     3
 10
4120.373956
 20
3888.526316
 11
4129.979073
 21
3888.526316
  0
LINE
  8
CSLAYER3
  6
CONTINUOUS
 62
     3
 10
4120.373956
 20
3888.726316
 11
4129.918867
 21
3888.726316
  0
LINE
  8
CSLAYER3
  6
CONTINUOUS
 62
     3
 10
4120.373956
 20
3888.926316
 11
4129.854060
 21
3888.926316
  0
LINE
  8
CSLAYER3
  6
CONTINUOUS
 62
     3
 10
4120.373956
 20
3889.126316
 11
4129.784557
 21
3889.126316
  0
LINE
  8
CSLAYER3
  6
CONTINUOUS
 62
     3
 10
4120.373956
 20
3889.326316
 11
4129.710254
 21
3889.326316
  0
LINE
  8
CSLAYER3
  6
CONTINUOUS
 62
     3
 10
4120.373956
 20
3889.526316
 11
4129.631034
 21
3889.526316
  0
LINE
  8
CSLAYER3
  6
CONTINUOUS
 62
     3
 10
4120.373956
 20
3889.726316
 11
4129.546771
 21
3889.726316
  0
LINE
  8
CSLAYER3
  6
CONTINUOUS
 62
     3
 10
4120.373956
 20
3889.926316
 11
4129.457324
 21
3889.926316
  0
LINE
  8
CSLAYER3
  6
CONTINUOUS
 62
     3
 10
4120.373956
 20
3890.126316
 11
4129.362539
 21
3890.126316
  0
LINE
  8
CSLAYER3
  6
CONTINUOUS
 62
     3
 10
4120.373956
 20
3890.326316
 11
4129.262244
 21
3890.326316
  0
LINE
  8
CSLAYER3
  6
CONTINUOUS
 62
     3
 10
4120.373956
 20
3890.526316
 11
4129.156251
 21
3890.526316
  0
LINE
  8
CSLAYER3
  6
CONTINUOUS
 62
     3
 10
4120.373956
 20
3890.726316
 11
4129.044351
 21
3890.726316
  0
LINE
  8
CSLAYER3
  6
CONTINUOUS
 62
     3
 10
4120.373956
 20
3890.926316
 11
4128.926312
 21
3890.926316
  0
LINE
  8
CSLAYER3
  6
CONTINUOUS
 62
     3
 10
4120.373956
 20
3891.126316
 11
4128.801876
 21
3891.126316
  0
LINE
  8
CSLAYER3
  6
CONTINUOUS
 62
     3
 10
4120.373956
 20
3891.326316
 11
4128.670755
 21
3891.326316
  0
LINE
  8
CSLAYER3
  6
CONTINUOUS
 62
     3
 10
4120.373956
 20
3891.526316
 11
4128.532627
 21
3891.526316
  0
LINE
  8
CSLAYER3
  6
CONTINUOUS
 62
     3
 10
4120.373956
 20
3891.726316
 11
4128.387130
 21
3891.726316
  0
LINE
  8
CSLAYER3
  6
CONTINUOUS
 62
     3
 10
4120.373956
 20
3891.926316
 11
4128.233854
 21
3891.926316
  0
LINE
  8
CSLAYER3
  6
CONTINUOUS
 62
     3
 10
4120.373956
 20
3892.126316
 11
4128.072335
 21
3892.126316
  0
LINE
  8
CSLAYER3
  6
CONTINUOUS
 62
     3
 10
4120.373956
 20
3892.326316
 11
4127.902043
 21
3892.326316
  0
LINE
  8
CSLAYER3
  6
CONTINUOUS
 62
     3
 10
4120.373956
 20
3892.526316
 11
4127.722366
 21
3892.526316
  0
LINE
  8
CSLAYER3
  6
CONTINUOUS
 62
     3
 10
4120.373956
 20
3892.726316
 11
4127.532599
 21
3892.726316
  0
LINE
  8
CSLAYER3
  6
CONTINUOUS
 62
     3
 10
4120.373956
 20
3892.926316
 11
4127.331916
 21
3892.926316
  0
LINE
  8
CSLAYER3
  6
CONTINUOUS
 62
     3
 10
4120.373956
 20
3893.126316
 11
4127.119344
 21
3893.126316
  0
LINE
  8
CSLAYER3
  6
CONTINUOUS
 62
     3
 10
4120.373956
 20
3893.326316
 11
4126.893718
 21
3893.326316
  0
LINE
  8
CSLAYER3
  6
CONTINUOUS
 62
     3
 10
4120.373956
 20
3893.526316
 11
4126.653633
 21
3893.526316
  0
LINE
  8
CSLAYER3
  6
CONTINUOUS
 62
     3
 10
4120.373956
 20
3893.726316
 11
4126.397359
 21
3893.726316
  0
LINE
  8
CSLAYER3
  6
CONTINUOUS
 62
     3
 10
4120.373956
 20
3893.926316
 11
4126.122732
 21
3893.926316
  0
LINE
  8
CSLAYER3
  6
CONTINUOUS
 62
     3
 10
4120.373956
 20
3894.126316
 11
4125.826980
 21
3894.126316
  0
LINE
  8
CSLAYER3
  6
CONTINUOUS
 62
     3
 10
4120.373956
 20
3894.326316
 11
4125.506452
 21
3894.326316
  0
LINE
  8
CSLAYER3
  6
CONTINUOUS
 62
     3
 10
4120.373956
 20
3894.526316
 11
4125.156168
 21
3894.526316
  0
LINE
  8
CSLAYER3
  6
CONTINUOUS
 62
     3
 10
4120.373956
 20
3894.726316
 11
4124.769021
 21
3894.726316
  0
LINE
  8
CSLAYER3
  6
CONTINUOUS
 62
     3
 10
4120.373956
 20
3894.926316
 11
4124.334213
 21
3894.926316
  0
LINE
  8
CSLAYER3
  6
CONTINUOUS
 62
     3
 10
4120.373956
 20
3895.126316
 11
4123.833823
 21
3895.126316
  0
LINE
  8
CSLAYER3
  6
CONTINUOUS
 62
     3
 10
4120.373956
 20
3895.326316
 11
4123.233628
 21
3895.326316
  0
LINE
  8
CSLAYER3
  6
CONTINUOUS
 62
     3
 10
4120.373956
 20
3895.526316
 11
4122.448749
 21
3895.526316
  0
LINE
  8
CSLAYER3
  6
CONTINUOUS
 62
     3
 10
4120.373956
 20
3895.726316
 11
4120.967090
 21
3895.726316
  0
LINE
  8
CSLAYER3
  6
CONTINUOUS
 62
     3
 10
4110.393046
 20
3885.126316
 11
4120.373956
 21
3885.126316
  0
LINE
  8
CSLAYER3
  6
CONTINUOUS
 62
     3
 10
4110.407436
 20
3884.926316
 11
4120.373956
 21
3884.926316
  0
LINE
  8
CSLAYER3
  6
CONTINUOUS
 62
     3
 10
4110.425867
 20
3884.726316
 11
4120.373956
 21
3884.726316
  0
LINE
  8
CSLAYER3
  6
CONTINUOUS
 62
     3
 10
4110.448361
 20
3884.526316
 11
4120.373956
 21
3884.526316
  0
LINE
  8
CSLAYER3
  6
CONTINUOUS
 62
     3
 10
4110.474946
 20
3884.326316
 11
4120.373956
 21
3884.326316
  0
LINE
  8
CSLAYER3
  6
CONTINUOUS
 62
     3
 10
4110.505656
 20
3884.126316
 11
4120.373956
 21
3884.126316
  0
LINE
  8
CSLAYER3
  6
CONTINUOUS
 62
     3
 10
4110.540528
 20
3883.926316
 11
4120.373956
 21
3883.926316
  0
LINE
  8
CSLAYER3
  6
CONTINUOUS
 62
     3
 10
4110.579607
 20
3883.726316
 11
4120.373956
 21
3883.726316
  0
LINE
  8
CSLAYER3
  6
CONTINUOUS
 62
     3
 10
4110.622945
 20
3883.526316
 11
4120.373956
 21
3883.526316
  0
LINE
  8
CSLAYER3
  6
CONTINUOUS
 62
     3
 10
4110.670597
 20
3883.326316
 11
4120.373956
 21
3883.326316
  0
LINE
  8
CSLAYER3
  6
CONTINUOUS
 62
     3
 10
4110.722628
 20
3883.126316
 11
4120.373956
 21
3883.126316
  0
LINE
  8
CSLAYER3
  6
CONTINUOUS
 62
     3
 10
4110.779109
 20
3882.926316
 11
4120.373956
 21
3882.926316
  0
LINE
  8
CSLAYER3
  6
CONTINUOUS
 62
     3
 10
4110.840119
 20
3882.726316
 11
4120.373956
 21
3882.726316
  0
LINE
  8
CSLAYER3
  6
CONTINUOUS
 62
     3
 10
4110.905745
 20
3882.526316
 11
4120.373956
 21
3882.526316
  0
LINE
  8
CSLAYER3
  6
CONTINUOUS
 62
     3
 10
4110.976085
 20
3882.326316
 11
4120.373956
 21
3882.326316
  0
LINE
  8
CSLAYER3
  6
CONTINUOUS
 62
     3
 10
4111.051246
 20
3882.126316
 11
4120.373956
 21
3882.126316
  0
LINE
  8
CSLAYER3
  6
CONTINUOUS
 62
     3
 10
4111.131343
 20
3881.926316
 11
4120.373956
 21
3881.926316
  0
LINE
  8
CSLAYER3
  6
CONTINUOUS
 62
     3
 10
4111.216509
 20
3881.726316
 11
4120.373956
 21
3881.726316
  0
LINE
  8
CSLAYER3
  6
CONTINUOUS
 62
     3
 10
4111.306884
 20
3881.526316
 11
4120.373956
 21
3881.526316
  0
LINE
  8
CSLAYER3
  6
CONTINUOUS
 62
     3
 10
4111.402626
 20
3881.326316
 11
4120.373956
 21
3881.326316
  0
LINE
  8
CSLAYER3
  6
CONTINUOUS
 62
     3
 10
4111.503910
 20
3881.126316
 11
4120.373956
 21
3881.126316
  0
LINE
  8
CSLAYER3
  6
CONTINUOUS
 62
     3
 10
4111.610927
 20
3880.926316
 11
4120.373956
 21
3880.926316
  0
LINE
  8
CSLAYER3
  6
CONTINUOUS
 62
     3
 10
4111.723891
 20
3880.726316
 11
4120.373956
 21
3880.726316
  0
LINE
  8
CSLAYER3
  6
CONTINUOUS
 62
     3
 10
4111.843036
 20
3880.526316
 11
4120.373956
 21
3880.526316
  0
LINE
  8
CSLAYER3
  6
CONTINUOUS
 62
     3
 10
4111.968627
 20
3880.326316
 11
4120.373956
 21
3880.326316
  0
LINE
  8
CSLAYER3
  6
CONTINUOUS
 62
     3
 10
4112.100957
 20
3880.126316
 11
4120.373956
 21
3880.126316
  0
LINE
  8
CSLAYER3
  6
CONTINUOUS
 62
     3
 10
4112.240355
 20
3879.926316
 11
4120.373956
 21
3879.926316
  0
LINE
  8
CSLAYER3
  6
CONTINUOUS
 62
     3
 10
4112.387191
 20
3879.726316
 11
4120.373956
 21
3879.726316
  0
LINE
  8
CSLAYER3
  6
CONTINUOUS
 62
     3
 10
4112.541882
 20
3879.526316
 11
4120.373956
 21
3879.526316
  0
LINE
  8
CSLAYER3
  6
CONTINUOUS
 62
     3
 10
4112.704906
 20
3879.326316
 11
4120.373956
 21
3879.326316
  0
LINE
  8
CSLAYER3
  6
CONTINUOUS
 62
     3
 10
4112.876804
 20
3879.126316
 11
4120.373956
 21
3879.126316
  0
LINE
  8
CSLAYER3
  6
CONTINUOUS
 62
     3
 10
4113.058202
 20
3878.926316
 11
4120.373956
 21
3878.926316
  0
LINE
  8
CSLAYER3
  6
CONTINUOUS
 62
     3
 10
4113.249827
 20
3878.726316
 11
4120.373956
 21
3878.726316
  0
LINE
  8
CSLAYER3
  6
CONTINUOUS
 62
     3
 10
4113.452528
 20
3878.526316
 11
4120.373956
 21
3878.526316
  0
LINE
  8
CSLAYER3
  6
CONTINUOUS
 62
     3
 10
4113.667308
 20
3878.326316
 11
4120.373956
 21
3878.326316
  0
LINE
  8
CSLAYER3
  6
CONTINUOUS
 62
     3
 10
4113.895370
 20
3878.126316
 11
4120.373956
 21
3878.126316
  0
LINE
  8
CSLAYER3
  6
CONTINUOUS
 62
     3
 10
4114.138169
 20
3877.926316
 11
4120.373956
 21
3877.926316
  0
LINE
  8
CSLAYER3
  6
CONTINUOUS
 62
     3
 10
4114.397503
 20
3877.726316
 11
4120.373956
 21
3877.726316
  0
LINE
  8
CSLAYER3
  6
CONTINUOUS
 62
     3
 10
4114.675627
 20
3877.526316
 11
4120.373956
 21
3877.526316
  0
LINE
  8
CSLAYER3
  6
CONTINUOUS
 62
     3
 10
4114.975446
 20
3877.326316
 11
4120.373956
 21
3877.326316
  0
LINE
  8
CSLAYER3
  6
CONTINUOUS
 62
     3
 10
4115.300804
 20
3877.126316
 11
4120.373956
 21
3877.126316
  0
LINE
  8
CSLAYER3
  6
CONTINUOUS
 62
     3
 10
4115.656984
 20
3876.926316
 11
4120.373956
 21
3876.926316
  0
LINE
  8
CSLAYER3
  6
CONTINUOUS
 62
     3
 10
4116.051597
 20
3876.726316
 11
4120.373956
 21
3876.726316
  0
LINE
  8
CSLAYER3
  6
CONTINUOUS
 62
     3
 10
4116.496361
 20
3876.526316
 11
4120.373956
 21
3876.526316
  0
LINE
  8
CSLAYER3
  6
CONTINUOUS
 62
     3
 10
4117.011115
 20
3876.326316
 11
4120.373956
 21
3876.326316
  0
LINE
  8
CSLAYER3
  6
CONTINUOUS
 62
     3
 10
4117.635041
 20
3876.126316
 11
4120.373956
 21
3876.126316
  0
LINE
  8
CSLAYER3
  6
CONTINUOUS
 62
     3
 10
4118.472742
 20
3875.926316
 11
4120.373956
 21
3875.926316
  0
ENDBLK
  8
0
  0
BLOCK
  8
CSLAYER1
  2
BLKF0004
 70
   64
 10
0.0
 20
0.0
 30
0.0
  0
LINE
  8
CSLAYER3
  6
CONTINUOUS
 62
     7
 10
3909.913492
 20
3179.033941
 11
3922.520741
 21
3179.033941
  0
LINE
  8
CSLAYER3
  6
CONTINUOUS
 62
     7
 10
3904.134174
 20
3169.683941
 11
3904.134174
 21
3160.683941
  0
LINE
  8
CSLAYER3
  6
CONTINUOUS
 62
     7
 10
3930.134174
 20
3176.501060
 11
3930.134174
 21
3153.866822
  0
LINE
  8
CSLAYER3
  6
CONTINUOUS
 62
     7
 10
3909.913492
 20
3151.333941
 11
3922.520741
 21
3151.333941
  0
LINE
  8
CSLAYER3
  6
CONTINUOUS
 62
     7
 10
3892.134174
 20
3166.768941
 11
3904.134174
 21
3166.768941
  0
LINE
  8
CSLAYER3
  6
CONTINUOUS
 62
     7
 10
3892.134174
 20
3163.598941
 11
3904.134174
 21
3163.598941
  0
LINE
  8
CSLAYER3
  6
CONTINUOUS
 62
     7
 10
3892.134174
 20
3166.768941
 11
3892.134174
 21
3163.598941
  0
LINE
  8
CSLAYER3
  6
CONTINUOUS
 62
     7
 10
3922.520741
 20
3179.033941
 11
3922.520741
 21
3151.333941
  0
LINE
  8
CSLAYER3
  6
CONTINUOUS
 62
     7
 10
3922.520741
 20
3179.033941
 11
3922.520741
 21
3151.333941
  0
LINE
  8
CSLAYER3
  6
CONTINUOUS
 62
     7
 10
3922.520741
 20
3179.033941
 11
3922.520741
 21
3151.333941
  0
LINE
  8
CSLAYER3
  6
CONTINUOUS
 62
     7
 10
3922.239472
 20
3179.033941
 11
3922.239472
 21
3151.333941
  0
LINE
  8
CSLAYER3
  6
CONTINUOUS
 62
     7
 10
3909.913492
 20
3179.033941
 11
3909.913492
 21
3151.333941
  0
LINE
  8
CSLAYER3
  6
CONTINUOUS
 62
     7
 10
3909.913492
 20
3179.033941
 11
3906.134174
 21
3174.289910
  0
LINE
  8
CSLAYER3
  6
CONTINUOUS
 62
     7
 10
3906.134174
 20
3174.289910
 11
3906.134174
 21
3156.077972
  0
LINE
  8
CSLAYER3
  6
CONTINUOUS
 62
     7
 10
3906.134174
 20
3165.183941
 11
3904.134174
 21
3165.183941
  0
LINE
  8
CSLAYER3
  6
CONTINUOUS
 62
     7
 10
3906.134174
 20
3169.683941
 11
3904.134174
 21
3169.683941
  0
LINE
  8
CSLAYER3
  6
CONTINUOUS
 62
     7
 10
3909.913492
 20
3151.333941
 11
3909.913492
 21
3179.033941
  0
LINE
  8
CSLAYER3
  6
CONTINUOUS
 62
     7
 10
3909.913492
 20
3151.333941
 11
3906.134174
 21
3156.077972
  0
LINE
  8
CSLAYER3
  6
CONTINUOUS
 62
     7
 10
3906.134174
 20
3160.683941
 11
3904.134174
 21
3160.683941
  0
LINE
  8
CSLAYER3
  6
CONTINUOUS
 62
     7
 10
3922.520741
 20
3179.033941
 11
3930.134174
 21
3176.501060
  0
LINE
  8
CSLAYER3
  6
CONTINUOUS
 62
     7
 10
3922.520741
 20
3151.333941
 11
3930.134174
 21
3153.866822
  0
ENDBLK
  8
0
  0
BLOCK
  8
CSLAYER1
  2
BLKF0005
 70
   64
 10
0.0
 20
0.0
 30
0.0
  0
LINE
  8
CSLAYER3
  6
CONTINUOUS
 62
     7
 10
3909.913492
 20
3899.593922
 11
3922.520741
 21
3899.593922
  0
LINE
  8
CSLAYER3
  6
CONTINUOUS
 62
     7
 10
3904.134174
 20
3890.243922
 11
3904.134174
 21
3881.243922
  0
LINE
  8
CSLAYER3
  6
CONTINUOUS
 62
     7
 10
3930.134174
 20
3897.061041
 11
3930.134174
 21
3874.426803
  0
LINE
  8
CSLAYER3
  6
CONTINUOUS
 62
     7
 10
3909.913492
 20
3871.893922
 11
3922.520741
 21
3871.893922
  0
LINE
  8
CSLAYER3
  6
CONTINUOUS
 62
     7
 10
3892.134174
 20
3887.328922
 11
3904.134174
 21
3887.328922
  0
LINE
  8
CSLAYER3
  6
CONTINUOUS
 62
     7
 10
3892.134174
 20
3884.158922
 11
3904.134174
 21
3884.158922
  0
LINE
  8
CSLAYER3
  6
CONTINUOUS
 62
     7
 10
3892.134174
 20
3887.328922
 11
3892.134174
 21
3884.158922
  0
LINE
  8
CSLAYER3
  6
CONTINUOUS
 62
     7
 10
3922.520741
 20
3899.593922
 11
3922.520741
 21
3871.893922
  0
LINE
  8
CSLAYER3
  6
CONTINUOUS
 62
     7
 10
3922.520741
 20
3899.593922
 11
3922.520741
 21
3871.893922
  0
LINE
  8
CSLAYER3
  6
CONTINUOUS
 62
     7
 10
3922.520741
 20
3899.593922
 11
3922.520741
 21
3871.893922
  0
LINE
  8
CSLAYER3
  6
CONTINUOUS
 62
     7
 10
3922.239472
 20
3899.593922
 11
3922.239472
 21
3871.893922
  0
LINE
  8
CSLAYER3
  6
CONTINUOUS
 62
     7
 10
3909.913492
 20
3899.593922
 11
3909.913492
 21
3871.893922
  0
LINE
  8
CSLAYER3
  6
CONTINUOUS
 62
     7
 10
3909.913492
 20
3899.593922
 11
3906.134174
 21
3894.849891
  0
LINE
  8
CSLAYER3
  6
CONTINUOUS
 62
     7
 10
3906.134174
 20
3894.849891
 11
3906.134174
 21
3876.637953
  0
LINE
  8
CSLAYER3
  6
CONTINUOUS
 62
     7
 10
3906.134174
 20
3885.743922
 11
3904.134174
 21
3885.743922
  0
LINE
  8
CSLAYER3
  6
CONTINUOUS
 62
     7
 10
3906.134174
 20
3890.243922
 11
3904.134174
 21
3890.243922
  0
LINE
  8
CSLAYER3
  6
CONTINUOUS
 62
     7
 10
3909.913492
 20
3871.893922
 11
3909.913492
 21
3899.593922
  0
LINE
  8
CSLAYER3
  6
CONTINUOUS
 62
     7
 10
3909.913492
 20
3871.893922
 11
3906.134174
 21
3876.637953
  0
LINE
  8
CSLAYER3
  6
CONTINUOUS
 62
     7
 10
3906.134174
 20
3881.243922
 11
3904.134174
 21
3881.243922
  0
LINE
  8
CSLAYER3
  6
CONTINUOUS
 62
     7
 10
3922.520741
 20
3899.593922
 11
3930.134174
 21
3897.061041
  0
LINE
  8
CSLAYER3
  6
CONTINUOUS
 62
     7
 10
3922.520741
 20
3871.893922
 11
3930.134174
 21
3874.426803
  0
ENDBLK
  8
0
  0
BLOCK
  8
CSLAYER1
  2
BLKF0006
 70
   64
 10
0.0
 20
0.0
 30
0.0
  0
LINE
  8
CSLAYER3
  6
CONTINUOUS
 62
     3
 10
4559.373956
 20
3170.183941
 11
4576.373956
 21
3184.806308
  0
LINE
  8
CSLAYER3
  6
CONTINUOUS
 62
     3
 10
4559.373956
 20
3165.183941
 11
4576.373956
 21
3150.561574
  0
LINE
  8
CSLAYER3
  6
CONTINUOUS
 62
     3
 10
4559.373956
 20
3170.183941
 11
4508.373956
 21
3170.183941
  0
LINE
  8
CSLAYER3
  6
CONTINUOUS
 62
     3
 10
4559.373956
 20
3165.183941
 11
4508.373956
 21
3165.183941
  0
LINE
  8
CSLAYER3
  6
CONTINUOUS
 62
     3
 10
4508.373956
 20
3170.183941
 11
4508.373956
 21
3165.183941
  0
LINE
  8
CSLAYER3
  6
CONTINUOUS
 62
     3
 10
4559.373956
 20
3170.183941
 11
4559.373956
 21
3165.183941
  0
ENDBLK
  8
0
  0
BLOCK
  8
CSLAYER1
  2
BLKF0007
 70
   64
 10
0.0
 20
0.0
 30
0.0
  0
TEXT
  8
CSLAYER3
 62
     3
 10
4335.655978
 20
4118.403227
 40
52.281437
 41
0.542500
  1
23.94dm
 50
0.000000
 51
0.000000
  7
FX_FONT
 72
     5
 11
4524.740506
 21
4118.403227
  0
TEXT
  8
CSLAYER3
 62
     3
 10
4518.424450
 20
4141.371683
 40
28.583782
 41
0.775000
  1
2
 50
0.000000
 51
0.000000
  7
FX_FONT
 72
     5
 11
4533.192737
 21
4141.371683
  0
ENDBLK
  8
0
  0
ENDSEC
  0
SECTION
  2
ENTITIES
  0
INSERT
  8
CSLAYER1
  2
BLKF0000
 10
0.0
 20
0.0
 30
0.0
  0
INSERT
  8
CSLAYER1
  2
BLKF0001
 10
0.0
 20
0.0
 30
0.0
  0
LINE
  8
CSLAYER3
  6
CONTINUOUS
 62
     3
 10
4636.117855
 20
3315.183941
 11
4576.383157
 21
3315.183941
  0
LINE
  8
CSLAYER3
  6
CONTINUOUS
 62
     3
 10
4576.383157
 20
3080.183941
 11
4676.667301
 21
3091.757284
  0
LINE
  8
CSLAYER3
  6
CONTINUOUS
 62
     3
 10
4702.165578
 20
3129.472410
 11
4655.409598
 21
3300.459227
  0
ARC
  8
CSLAYER3
  6
CONTINUOUS
 62
     3
 10
4673.227963
 20
3121.559481
 40
30.000000
 50
-83.416874
 51
15.293540
  0
ARC
  8
CSLAYER3
  6
CONTINUOUS
 62
     3
 10
4636.117855
 20
3295.183941
 40
20.000000
 50
15.293540
 51
90.000000
  0
LINE
  8
CSLAYER3
  6
CONTINUOUS
 62
     3
 10
4020.373956
 20
3485.743922
 11
4020.373956
 21
4285.743922
  0
LINE
  8
CSLAYER3
  6
CONTINUOUS
 62
     3
 10
4246.373956
 20
3162.791923
 11
4246.373956
 21
3168.187552
  0
LINE
  8
CSLAYER3
  6
CONTINUOUS
 62
     3
 10
4704.789250
 20
3885.743922
 11
4565.918277
 21
3885.743922
  0
LINE
  8
CSLAYER3
  6
CONTINUOUS
 62
     3
 10
3900.143157
 20
3860.743922
 11
4262.680525
 21
3860.743922
  0
LINE
  8
CSLAYER3
  6
CONTINUOUS
 62
     3
 10
3900.143157
 20
3910.743922
 11
4262.680525
 21
3910.743922
  0
LINE
  8
CSLAYER3
  6
CONTINUOUS
 62
     3
 10
3900.143157
 20
3913.743922
 11
4262.773411
 21
3913.743922
  0
LINE
  8
CSLAYER3
  6
CONTINUOUS
 62
     3
 10
3900.143157
 20
3857.743922
 11
4262.773411
 21
3857.743922
  0
LINE
  8
CSLAYER3
  6
CONTINUOUS
 62
     3
 10
3900.143157
 20
3857.743922
 11
3900.143157
 21
3913.743922
  0
LINE
  8
CSLAYER3
  6
CONTINUOUS
 62
     3
 10
4055.373956
 20
3450.743922
 11
4063.358330
 21
3450.743922
  0
LINE
  8
CSLAYER3
  6
CONTINUOUS
 62
     3
 10
4246.373956
 20
3485.743922
 11
4246.373956
 21
4285.743922
  0
LINE
  8
CSLAYER3
  6
CONTINUOUS
 62
     3
 10
4060.358330
 20
3450.743922
 11
4060.358330
 21
4320.743922
  0
LINE
  8
CSLAYER3
  6
CONTINUOUS
 62
     3
 10
4063.358330
 20
3450.743922
 11
4063.358330
 21
4320.743922
  0
LINE
  8
CSLAYER3
  6
CONTINUOUS
 62
     3
 10
4020.373956
 20
3485.743922
 11
4246.373956
 21
3485.743922
  0
LINE
  8
CSLAYER3
  6
CONTINUOUS
 62
     3
 10
4063.358330
 20
3450.743922
 11
4301.373956
 21
3496.262150
  0
LINE
  8
CSLAYER3
  6
CONTINUOUS
 62
     3
 10
4246.373956
 20
3847.743922
 11
4331.373956
 21
3847.743922
  0
LINE
  8
CSLAYER3
  6
CONTINUOUS
 62
     3
 10
4331.373956
 20
3847.743922
 11
4301.373956
 21
3496.262150
  0
ARC
  8
CSLAYER3
  6
CONTINUOUS
 62
     3
 10
4055.373956
 20
3485.743922
 40
35.000000
 50
180.000000
 51
270.000000
  0
LINE
  8
CSLAYER3
  6
CONTINUOUS
 62
     3
 10
4020.373956
 20
3790.743922
 11
4246.373956
 21
3790.743922
  0
LINE
  8
CSLAYER3
  6
CONTINUOUS
 62
     3
 10
4020.373956
 20
3685.743922
 11
4246.373956
 21
3685.743922
  0
LINE
  8
CSLAYER3
  6
CONTINUOUS
 62
     3
 10
4020.373956
 20
3787.743922
 11
4246.373956
 21
3787.743922
  0
LINE
  8
CSLAYER3
  6
CONTINUOUS
 62
     3
 10
4020.373956
 20
3688.743922
 11
4246.373956
 21
3688.743922
  0
LINE
  8
CSLAYER3
  6
CONTINUOUS
 62
     3
 10
4020.373956
 20
3590.743922
 11
4246.373956
 21
3590.743922
  0
LINE
  8
CSLAYER3
  6
CONTINUOUS
 62
     3
 10
4020.373956
 20
3587.743922
 11
4246.373956
 21
3587.743922
  0
LINE
  8
CSLAYER3
  6
CONTINUOUS
 62
     3
 10
4020.373956
 20
3488.743922
 11
4246.373956
 21
3488.743922
  0
LINE
  8
CSLAYER3
  6
CONTINUOUS
 62
     3
 10
4055.373956
 20
4320.743922
 11
4063.358330
 21
4320.743922
  0
LINE
  8
CSLAYER3
  6
CONTINUOUS
 62
     3
 10
4020.373956
 20
4285.743922
 11
4246.373956
 21
4285.743922
  0
LINE
  8
CSLAYER3
  6
CONTINUOUS
 62
     3
 10
4063.358330
 20
4320.743922
 11
4301.373956
 21
4275.225695
  0
LINE
  8
CSLAYER3
  6
CONTINUOUS
 62
     3
 10
4246.373956
 20
3923.743922
 11
4331.373956
 21
3923.743922
  0
LINE
  8
CSLAYER3
  6
CONTINUOUS
 62
     3
 10
4331.373956
 20
3923.743922
 11
4301.373956
 21
4275.225695
  0
ARC
  8
CSLAYER3
  6
CONTINUOUS
 62
     3
 10
4055.373956
 20
4285.743922
 40
35.000000
 50
90.000000
 51
180.000000
  0
LINE
  8
CSLAYER3
  6
CONTINUOUS
 62
     3
 10
4020.373956
 20
3980.743922
 11
4246.373956
 21
3980.743922
  0
LINE
  8
CSLAYER3
  6
CONTINUOUS
 62
     3
 10
4020.373956
 20
4085.743922
 11
4246.373956
 21
4085.743922
  0
LINE
  8
CSLAYER3
  6
CONTINUOUS
 62
     3
 10
4020.373956
 20
3983.743922
 11
4246.373956
 21
3983.743922
  0
LINE
  8
CSLAYER3
  6
CONTINUOUS
 62
     3
 10
4020.373956
 20
4082.743922
 11
4246.373956
 21
4082.743922
  0
LINE
  8
CSLAYER3
  6
CONTINUOUS
 62
     3
 10
4020.373956
 20
4180.743922
 11
4246.373956
 21
4180.743922
  0
LINE
  8
CSLAYER3
  6
CONTINUOUS
 62
     3
 10
4020.373956
 20
4183.743922
 11
4246.373956
 21
4183.743922
  0
LINE
  8
CSLAYER3
  6
CONTINUOUS
 62
     3
 10
4020.373956
 20
4282.743922
 11
4246.373956
 21
4282.743922
  0
LINE
  8
CSLAYER3
  6
CONTINUOUS
 62
     3
 10
4504.680525
 20
3895.743922
 11
4262.680525
 21
3910.743922
  0
LINE
  8
CSLAYER3
  6
CONTINUOUS
 62
     3
 10
4504.680525
 20
3895.743922
 11
4554.680525
 21
3890.743922
  0
LINE
  8
CSLAYER3
  6
CONTINUOUS
 62
     3
 10
4554.680525
 20
3890.743922
 11
4565.918277
 21
3885.743922
  0
LINE
  8
CSLAYER3
  6
CONTINUOUS
 62
     3
 10
4504.680525
 20
3875.743922
 11
4262.680525
 21
3860.743922
  0
LINE
  8
CSLAYER3
  6
CONTINUOUS
 62
     3
 10
4504.680525
 20
3875.743922
 11
4554.680525
 21
3880.743922
  0
LINE
  8
CSLAYER3
  6
CONTINUOUS
 62
     3
 10
4554.680525
 20
3880.743922
 11
4565.918277
 21
3885.743922
  0
LINE
  8
CSLAYER3
  6
CONTINUOUS
 62
     3
 10
4559.373956
 20
4080.743922
 11
4559.373956
 21
3690.743922
  0
LINE
  8
CSLAYER3
  6
CONTINUOUS
 62
     3
 10
4504.373956
 20
3885.743922
 11
4518.239375
 21
4065.994367
  0
LINE
  8
CSLAYER3
  6
CONTINUOUS
 62
     3
 10
4619.373956
 20
4075.743922
 11
4537.681174
 21
4082.551654
  0
LINE
  8
CSLAYER3
  6
CONTINUOUS
 62
     3
 10
4664.373956
 20
3980.743922
 11
4619.373956
 21
4075.743922
  0
ARC
  8
CSLAYER3
  6
CONTINUOUS
 62
     3
 10
4536.186356
 20
4064.613830
 40
18.000000
 50
85.236358
 51
175.601295
  0
LINE
  8
CSLAYER3
  6
CONTINUOUS
 62
     3
 10
4504.373956
 20
3885.743922
 11
4518.239375
 21
3705.493477
  0
LINE
  8
CSLAYER3
  6
CONTINUOUS
 62
     3
 10
4619.373956
 20
3695.743922
 11
4537.681174
 21
3688.936190
  0
LINE
  8
CSLAYER3
  6
CONTINUOUS
 62
     3
 10
4664.373956
 20
3790.743922
 11
4619.373956
 21
3695.743922
  0
ARC
  8
CSLAYER3
  6
CONTINUOUS
 62
     3
 10
4536.186356
 20
3706.874014
 40
18.000000
 50
184.398705
 51
274.763642
  0
LINE
  8
CSLAYER3
  6
CONTINUOUS
 62
     3
 10
4504.866119
 20
3898.738176
 11
4262.773411
 21
3913.743922
  0
LINE
  8
CSLAYER3
  6
CONTINUOUS
 62
     3
 10
4504.979036
 20
3898.729034
 11
4555.459180
 21
3893.681019
  0
LINE
  8
CSLAYER3
  6
CONTINUOUS
 62
     3
 10
4555.459180
 20
3893.681019
 11
4565.918277
 21
3889.027465
  0
LINE
  8
CSLAYER3
  6
CONTINUOUS
 62
     3
 10
4504.866119
 20
3872.749668
 11
4262.773411
 21
3857.743922
  0
LINE
  8
CSLAYER3
  6
CONTINUOUS
 62
     3
 10
4504.979036
 20
3872.758811
 11
4555.459180
 21
3877.806825
  0
LINE
  8
CSLAYER3
  6
CONTINUOUS
 62
     3
 10
4555.459180
 20
3877.806825
 11
4565.918277
 21
3882.460379
  0
LINE
  8
CSLAYER3
  6
CONTINUOUS
 62
     3
 10
4565.918277
 20
3891.939222
 11
4664.373956
 21
3980.743922
  0
LINE
  8
CSLAYER3
  6
CONTINUOUS
 62
     3
 10
4565.918277
 20
3879.548622
 11
4664.373956
 21
3790.743922
  0
LINE
  8
CSLAYER3
  6
CONTINUOUS
 62
     3
 10
4565.918277
 20
3891.939222
 11
4565.918277
 21
3879.548622
  0
LINE
  8
CSLAYER3
  6
CONTINUOUS
 62
     3
 10
4704.789250
 20
3888.243922
 11
4704.789250
 21
3883.243922
  0
LINE
  8
CSLAYER3
  6
CONTINUOUS
 62
     3
 10
4704.789250
 20
3888.243922
 11
4565.918277
 21
3888.243922
  0
LINE
  8
CSLAYER3
  6
CONTINUOUS
 62
     3
 10
4704.789250
 20
3883.243922
 11
4565.918277
 21
3883.243922
  0
LINE
  8
CSLAYER3
  6
CONTINUOUS
 62
     3
 10
4503.154735
 20
3888.243922
 11
4503.154735
 21
3883.243922
  0
LINE
  8
CSLAYER3
  6
CONTINUOUS
 62
     3
 10
4565.918277
 20
3888.243922
 11
4503.154735
 21
3888.243922
  0
LINE
  8
CSLAYER3
  6
CONTINUOUS
 62
     3
 10
4503.154735
 20
3883.243922
 11
4565.918277
 21
3883.243922
  0
INSERT
  8
CSLAYER1
  2
BLKF0002
 10
0.0
 20
0.0
 30
0.0
  0
INSERT
  8
CSLAYER1
  2
BLKF0003
 10
0.0
 20
0.0
 30
0.0
  0
INSERT
  8
CSLAYER1
  2
BLKF0004
 10
0.0
 20
0.0
 30
0.0
  0
LINE
  8
CSLAYER3
  6
CONTINUOUS
 62
     3
 10
4046.143157
 20
3250.183941
 11
4228.522713
 21
3236.226676
  0
LINE
  8
CSLAYER3
  6
CONTINUOUS
 62
     3
 10
4228.522713
 20
3236.226676
 11
4267.844978
 21
3282.354718
  0
INSERT
  8
CSLAYER1
  2
BLKF0005
 10
0.0
 20
0.0
 30
0.0
  0
INSERT
  8
CSLAYER1
  2
BLKF0006
 10
0.0
 20
0.0
 30
0.0
  0
LINE
  8
CSLAYER3
  6
CONTINUOUS
 62
     3
 10
4576.383157
 20
3315.183941
 11
4576.383157
 21
3080.183941
  0
LINE
  8
CSLAYER3
  6
CONTINUOUS
 62
     3
 10
4576.383157
 20
3315.183941
 11
4562.989607
 21
3315.183941
  0
ARC
  8
CSLAYER3
  6
CONTINUOUS
 62
     3
 10
3940.143157
 20
3120.183941
 40
40.000000
 50
180.000000
 51
270.000000
  0
ARC
  8
CSLAYER3
  6
CONTINUOUS
 62
     3
 10
4163.547502
 20
3036.598811
 40
258.294920
 50
81.651596
 51
105.805298
  0
ARC
  8
CSLAYER3
  6
CONTINUOUS
 62
     3
 10
4115.705506
 20
3205.668511
 40
82.586584
 50
105.783553
 51
147.383371
  0
LINE
  8
CSLAYER3
  6
CONTINUOUS
 62
     3
 10
4184.143157
 20
3080.183941
 11
3940.143157
 21
3080.183941
  0
LINE
  8
CSLAYER3
  6
CONTINUOUS
 62
     3
 10
3900.143157
 20
3204.835083
 11
3900.143157
 21
3120.183941
  0
LINE
  8
CSLAYER3
  6
CONTINUOUS
 62
     3
 10
3926.271692
 20
3234.584230
 11
4046.143157
 21
3250.183941
  0
ARC
  8
CSLAYER3
  6
CONTINUOUS
 62
     3
 10
3930.143157
 20
3204.835083
 40
30.000000
 50
97.414630
 51
180.000000
  0
LINE
  8
CSLAYER3
  6
CONTINUOUS
 62
     3
 10
4522.292228
 20
3264.274815
 11
4545.624745
 21
3305.106720
  0
LINE
  8
CSLAYER3
  6
CONTINUOUS
 62
     3
 10
4491.889170
 20
3249.476879
 11
4201.049885
 21
3292.156705
  0
LINE
  8
CSLAYER3
  6
CONTINUOUS
 62
     3
 10
4576.383157
 20
3080.183941
 11
4506.131216
 21
3091.892598
  0
LINE
  8
CSLAYER3
  6
CONTINUOUS
 62
     3
 10
4506.131216
 20
3091.892598
 11
4184.143157
 21
3080.183941
  0
ARC
  8
CSLAYER3
  6
CONTINUOUS
 62
     3
 10
4562.989607
 20
3295.183941
 40
20.000000
 50
90.000000
 51
150.255119
  0
ARC
  8
CSLAYER3
  6
CONTINUOUS
 62
     3
 10
4496.244933
 20
3279.158984
 40
30.000000
 50
261.651596
 51
330.255119
  0
LINE
  8
CSLAYER3
  6
CONTINUOUS
 62
     3
 10
4664.373956
 20
3170.183941
 11
4664.373956
 21
3165.183941
  0
LINE
  8
CSLAYER3
  6
CONTINUOUS
 62
     3
 10
4664.373956
 20
3170.183941
 11
4562.028370
 21
3170.183941
  0
LINE
  8
CSLAYER3
  6
CONTINUOUS
 62
     3
 10
4559.373956
 20
3167.683941
 11
4562.028370
 21
3170.183941
  0
LINE
  8
CSLAYER3
  6
CONTINUOUS
 62
     3
 10
4664.373956
 20
3165.183941
 11
4562.028370
 21
3165.183941
  0
LINE
  8
CSLAYER3
  6
CONTINUOUS
 62
     3
 10
4559.373956
 20
3167.683941
 11
4562.028370
 21
3165.183941
  0
INSERT
  8
CSLAYER1
  2
BLKF0007
 10
0.0
 20
0.0
 30
0.0
  0
LINE
  8
CSLAYER3
  6
CONTINUOUS
 62
     3
 10
4010.358330
 20
3002.075896
 11
4010.358330
 21
3112.075896
  0
CIRCLE
  8
CSLAYER3
  6
CONTINUOUS
 62
     3
 10
4010.358330
 20
3002.075896
 40
22.500000
  0
CIRCLE
  8
CSLAYER3
  6
CONTINUOUS
 62
     3
 10
4010.358330
 20
3002.075896
 40
30.500000
  0
TEXT
  8
CSLAYER3
 62
     3
 10
4356.542614
 20
3496.134205
 40
98.548973
 41
0.534483
  1
スーパーエアクローン
 50
0.000000
 51
0.000000
  7
FX_FONT
 72
     5
 11
4865.712269
 21
3496.134205
  0
TEXT
  8
CSLAYER3
 62
     3
 10
4534.751993
 20
3397.585232
 40
98.548973
 41
0.581250
  1
  2
 50
0.000000
 51
0.000000
  7
FX_FONT
 72
     5
 11
4687.502890
 21
3397.585232
  0
ENDSEC
  0
EOF
