999

999

999

  0
SECTION
  2
HEADER
  9
$ACADVER
  1
AC1006
  9
$INSBASE
 10
0.000000000000
 20
0.000000000000
 30
0.0
  9
$EXTMIN
 10
-52.665312500000
 20
-12.700000000000
  9
$EXTMAX
 10
2177.523889368351
 20
1568.994469410178
  9
$LTSCALE
 40
100.000000000000
  0
ENDSEC
  0
SECTION
  2
TABLES
  0
TABLE
  2
LTYPE
 70
     6
  0
LTYPE
  2
CONTINUOUS
 70
    64
  3
Solid line
 72
    65
 73
     0
 40
0.0
  0
LTYPE
  2
DASHED
 70
    64
  3
__ __ __ __ __ __ __ __ __ __ __ __ __ __ __
 72
    65
 73
     2
 40
0.75
 49
0.5
 49
-0.25
  0
LTYPE
  2
HIDDEN
 70
    64
  3
_ _ _ _ _ _ _ _ _ _ _ _ _ _ _ _ _ _ _ _ _ _ _
 72
    65
 73
     2
 40
0.375
 49
0.25
 49
-0.125
  0
LTYPE
  2
DOT
 70
    64
  3
...............................................
 72
    65
 73
     2
 40
0.25
 49
0.0
 49
-0.25
  0
LTYPE
  2
DASHDOT
 70
    64
  3
__ . __ . __ . __ . __ . __ . __ . __ . __ . __
 72
    65
 73
     4
 40
1.0
 49
0.5
 49
-0.25
 49
0.0
 49
-0.25
  0
LTYPE
  2
DIVIDE
 70
    64
  3
__ . . __ . . __ . . __ . . __ . . __ . . __
 72
    65
 73
     6
 40
1.25
 49
0.5
 49
-0.25
 49
0.0
 49
-0.25
 49
0.0
 49
-0.25
  0
ENDTAB
  0
TABLE
  2
LAYER
 70
   16
  0
LAYER
  2
1
 70
    64
 62
     7
  6
CONTINUOUS
  0
LAYER
  2
2
 70
    64
 62
     2
  6
CONTINUOUS
  0
LAYER
  2
3
 70
    64
 62
     6
  6
CONTINUOUS
  0
LAYER
  2
4
 70
    64
 62
     5
  6
CONTINUOUS
  0
LAYER
  2
5
 70
    64
 62
     4
  6
CONTINUOUS
  0
LAYER
  2
6
 70
    64
 62
     7
  6
CONTINUOUS
  0
LAYER
  2
7
 70
    64
 62
     7
  6
CONTINUOUS
  0
LAYER
  2
8
 70
    64
 62
     2
  6
CONTINUOUS
  0
LAYER
  2
9
 70
    64
 62
     6
  6
CONTINUOUS
  0
LAYER
  2
10
 70
    64
 62
     5
  6
CONTINUOUS
  0
LAYER
  2
11
 70
    64
 62
     4
  6
CONTINUOUS
  0
LAYER
  2
12
 70
    64
 62
     7
  6
CONTINUOUS
  0
LAYER
  2
13
 70
    64
 62
     2
  6
CONTINUOUS
  0
LAYER
  2
14
 70
    64
 62
     6
  6
CONTINUOUS
  0
LAYER
  2
15
 70
    64
 62
     5
  6
CONTINUOUS
  0
LAYER
  2
16
 70
    64
 62
     4
  6
CONTINUOUS
  0
ENDTAB
  0
TABLE
  2
STYLE
 70
     5
  0
STYLE
  2
STANDARD
 70
     0
 40
1.0
 41
1.0
 50
0.0
 71
     0
 42
1.0
  3
TXT
  4

  0
STYLE
  2
BIGFONT
 70
     0
 40
1.0
 41
1.0
 50
0.0
 71
     0
 42
1.0
  3
TXT
  4
BIGFONT
  0
ENDTAB
  0
ENDSEC
  0
SECTION
  2
ENTITIES
  0
LINE
  8
2
  6
CONTINUOUS
 62
     1
 10
383.192992253300
 20
1284.194265003499
 11
509.192992253300
 21
1284.194265003499
  0
LINE
  8
2
  6
CONTINUOUS
 62
     1
 10
383.192992253300
 20
584.194265003499
 11
509.192992253300
 21
584.194265003499
  0
LINE
  8
2
  6
CONTINUOUS
 62
     1
 10
509.192992253300
 20
1284.194265003499
 11
509.192992253300
 21
584.194265003499
  0
LINE
  8
2
  6
CONTINUOUS
 62
     1
 10
353.192992253300
 20
1254.194265003499
 11
353.192992253300
 21
614.194265003499
  0
ARC
  8
2
  6
CONTINUOUS
 62
     1
 10
383.192992253300
 20
614.194265003499
 40
30.000000000000
 50
180.000000000000
 51
270.000000000000
  0
ARC
  8
2
  6
CONTINUOUS
 62
     1
 10
383.192992253300
 20
1254.194265003499
 40
30.000000000000
 50
90.000000000000
 51
180.000000000000
  0
LINE
  8
2
  6
CONTINUOUS
 62
     1
 10
509.192992253300
 20
434.194265003499
 11
554.192992253299
 21
434.194265003499
  0
LINE
  8
2
  6
CONTINUOUS
 62
     1
 10
554.192992253300
 20
436.194265003499
 11
554.192992253300
 21
432.194265003499
  0
LINE
  8
2
  6
CONTINUOUS
 62
     1
 10
509.192992253300
 20
432.194265003499
 11
554.192992253299
 21
432.194265003499
  0
LINE
  8
2
  6
CONTINUOUS
 62
     1
 10
509.192992253300
 20
436.194265003499
 11
554.192992253299
 21
436.194265003499
  0
LINE
  8
2
  6
CONTINUOUS
 62
     1
 10
917.439901806172
 20
1093.303802524814
 11
917.439901806172
 21
973.303802524814
  0
LINE
  8
2
  6
CONTINUOUS
 62
     1
 10
970.837668333331
 20
934.194265003499
 11
221.807006623533
 21
934.194265003499
  0
LINE
  8
2
  6
CONTINUOUS
 62
     1
 10
787.663013643366
 20
953.376487332844
 11
802.439901806172
 21
1076.889505656594
  0
LINE
  8
2
  6
CONTINUOUS
 62
     1
 10
802.439901806172
 20
1076.889505656594
 11
917.439901806171
 21
1093.303802524814
  0
LINE
  8
2
  6
CONTINUOUS
 62
     1
 10
874.425067713665
 20
944.921716402559
 11
917.439901806172
 21
973.303802524814
  0
LINE
  8
2
  6
CONTINUOUS
 62
     1
 10
917.439901806171
 20
893.182228044100
 11
917.439901806171
 21
773.182228044100
  0
LINE
  8
2
  6
CONTINUOUS
 62
     1
 10
221.807006623533
 20
954.194265003500
 11
221.807006623533
 21
914.194265003499
  0
LINE
  8
2
  6
CONTINUOUS
 62
     1
 10
791.807006623533
 20
434.194265003499
 11
911.807006623533
 21
434.194265003499
  0
LINE
  8
2
  6
CONTINUOUS
 62
     1
 10
326.192992253301
 20
364.194265003499
 11
428.793580809520
 21
364.194265003499
  0
LINE
  8
2
  6
CONTINUOUS
 62
     1
 10
221.807006623533
 20
454.194265003499
 11
221.807006623533
 21
414.194265003499
  0
LINE
  8
2
  6
CONTINUOUS
 62
     1
 10
955.207291655486
 20
534.194265003499
 11
854.651926358197
 21
534.194265003499
  0
LINE
  8
2
  6
CONTINUOUS
 62
     1
 10
728.659277194730
 20
482.720179930197
 11
452.133162017914
 21
509.412518159605
  0
LINE
  8
2
  6
CONTINUOUS
 62
     1
 10
326.192992253301
 20
364.194265003499
 11
287.504836449200
 21
369.471515439031
  0
LINE
  8
2
  6
CONTINUOUS
 62
     1
 10
257.454895025674
 20
480.277084684592
 11
294.678941342046
 21
465.168208056592
  0
LINE
  8
2
  6
CONTINUOUS
 62
     1
 10
294.678941342046
 20
465.168208056592
 11
445.844132503793
 21
460.601569562551
  0
LINE
  8
2
  6
CONTINUOUS
 62
     1
 10
445.844132503793
 20
460.601569562551
 11
510.516441405548
 21
465.838193765122
  0
LINE
  8
2
  6
CONTINUOUS
 62
     1
 10
558.402702271766
 20
499.407113829717
 11
545.853515523309
 21
484.348089731568
  0
LINE
  8
2
  6
CONTINUOUS
 62
     1
 10
545.853515523309
 20
484.348089731568
 11
510.516441405548
 21
465.838193765122
  0
LINE
  8
2
  6
CONTINUOUS
 62
     1
 10
353.192992253300
 20
959.194265003499
 11
613.166225388014
 21
959.194265003499
  0
LINE
  8
2
  6
CONTINUOUS
 62
     1
 10
353.192992253300
 20
909.194265003499
 11
613.166225388014
 21
909.194265003499
  0
LINE
  8
2
  6
CONTINUOUS
 62
     1
 10
353.192992253300
 20
959.194265003499
 11
221.807006623533
 21
954.194265003500
  0
LINE
  8
2
  6
CONTINUOUS
 62
     1
 10
221.807006623533
 20
914.194265003499
 11
353.192992253300
 21
909.194265003499
  0
LINE
  8
2
  6
CONTINUOUS
 62
     1
 10
970.837668333331
 20
937.194265003499
 11
741.005360688189
 21
937.194265003499
  0
LINE
  8
2
  6
CONTINUOUS
 62
     1
 10
970.837668333331
 20
931.194265003499
 11
741.005360688189
 21
931.194265003499
  0
LINE
  8
2
  6
CONTINUOUS
 62
     1
 10
221.807006623533
 20
414.194265003499
 11
230.111542557541
 21
399.494817782478
  0
LINE
  8
2
  6
CONTINUOUS
 62
     1
 10
230.111542557541
 20
399.494817782478
 11
287.504836449200
 21
369.471515439032
  0
LINE
  8
2
  6
CONTINUOUS
 62
     1
 10
211.701243301404
 20
304.194265003499
 11
211.701243301404
 21
564.194265003499
  0
LINE
  8
2
  6
CONTINUOUS
 62
     1
 10
219.007864891870
 20
484.194265003499
 11
201.654638614511
 21
484.194265003499
  0
LINE
  8
2
  6
CONTINUOUS
 62
     1
 10
211.701243301404
 20
564.194265003499
 11
201.654638614511
 21
484.194265003499
  0
LINE
  8
2
  6
CONTINUOUS
 62
     1
 10
219.007864891870
 20
384.194265003499
 11
201.654638614511
 21
384.194265003499
  0
LINE
  8
2
  6
CONTINUOUS
 62
     1
 10
201.654638614511
 20
484.194265003499
 11
219.007864891870
 21
384.194265003499
  0
LINE
  8
2
  6
CONTINUOUS
 62
     1
 10
219.007864891870
 20
384.194265003499
 11
211.701243301404
 21
304.194265003499
  0
LINE
  8
2
  6
CONTINUOUS
 62
     1
 10
211.701243301404
 20
304.194265003499
 11
201.654638614511
 21
384.194265003499
  0
LINE
  8
2
  6
CONTINUOUS
 62
     1
 10
201.654638614511
 20
384.194265003499
 11
219.007864891870
 21
484.194265003499
  0
LINE
  8
2
  6
CONTINUOUS
 62
     1
 10
219.007864891870
 20
484.194265003499
 11
211.701243301404
 21
564.194265003499
  0
LINE
  8
2
  6
CONTINUOUS
 62
     1
 10
211.701243301404
 20
804.194265003499
 11
211.701243301404
 21
1064.194265003499
  0
LINE
  8
2
  6
CONTINUOUS
 62
     1
 10
219.007864891870
 20
984.194265003499
 11
201.654638614511
 21
984.194265003499
  0
LINE
  8
2
  6
CONTINUOUS
 62
     1
 10
211.701243301404
 20
1064.194265003499
 11
201.654638614511
 21
984.194265003499
  0
LINE
  8
2
  6
CONTINUOUS
 62
     1
 10
219.007864891870
 20
884.194265003499
 11
201.654638614511
 21
884.194265003499
  0
LINE
  8
2
  6
CONTINUOUS
 62
     1
 10
201.654638614511
 20
984.194265003499
 11
219.007864891870
 21
884.194265003499
  0
LINE
  8
2
  6
CONTINUOUS
 62
     1
 10
219.007864891870
 20
884.194265003499
 11
211.701243301404
 21
804.194265003499
  0
LINE
  8
2
  6
CONTINUOUS
 62
     1
 10
211.701243301404
 20
804.194265003499
 11
201.654638614511
 21
884.194265003499
  0
LINE
  8
2
  6
CONTINUOUS
 62
     1
 10
201.654638614511
 20
884.194265003499
 11
219.007864891870
 21
984.194265003499
  0
LINE
  8
2
  6
CONTINUOUS
 62
     1
 10
219.007864891870
 20
984.194265003499
 11
211.701243301404
 21
1064.194265003499
  0
LINE
  8
2
  6
CONTINUOUS
 62
     1
 10
344.236426011362
 20
393.471983700135
 11
279.024119290723
 21
292.151175265631
  0
CIRCLE
  8
2
  6
CONTINUOUS
 62
     1
 10
279.024119290723
 20
292.151175265631
 40
12.500000000000
  0
LINE
  8
2
  6
CONTINUOUS
 62
     1
 10
865.558440769421
 20
385.385710030025
 11
887.242199121111
 21
367.898808133501
  0
LINE
  8
2
  6
CONTINUOUS
 62
     1
 10
266.807006623533
 20
917.194265003499
 11
266.807006623533
 21
951.194265003499
  0
LINE
  8
2
  6
CONTINUOUS
 62
     1
 10
266.807006623533
 20
917.194265003499
 11
272.437535272159
 21
917.194265003499
  0
LINE
  8
2
  6
CONTINUOUS
 62
     1
 10
266.807006623533
 20
951.194265003499
 11
272.437535272159
 21
951.194265003499
  0
LINE
  8
2
  6
DOT
 62
     3
 10
389.192992253301
 20
584.194265003499
 11
389.192992253301
 21
1284.194265003499
  0
TEXT
  8
2
 62
     3
 10
534.726684570313
 20
335.881866455078
 40
15.000000000000
 41
0.500000000000
  1
周長333mm
 50
0.000000000000
 51
0.000000000000
  7
BIGFONT
  0
LINE
  8
2
  6
CONTINUOUS
 62
     3
 10
444.520502341872
 20
422.087990797440
 11
532.726592275229
 21
333.881900864083
  0
LINE
  8
2
  6
CONTINUOUS
 62
     3
 10
444.520502341872
 20
422.087990797440
 11
448.850629360794
 21
419.587990797440
  0
LINE
  8
2
  6
CONTINUOUS
 62
     3
 10
444.520502341872
 20
422.087990797440
 11
447.020502341872
 21
417.757863778518
  0
LINE
  8
2
  6
CONTINUOUS
 62
     3
 10
532.726592275229
 20
333.881900864083
 11
618.548733832010
 21
333.881900864083
  0
LINE
  8
2
  6
CONTINUOUS
 62
     1
 10
802.439901806172
 20
791.499024350404
 11
917.439901806171
 21
773.182228044100
  0
LINE
  8
2
  6
CONTINUOUS
 62
     1
 10
787.663013643365
 20
915.012042674155
 11
802.439901806172
 21
791.499024350404
  0
LINE
  8
2
  6
CONTINUOUS
 62
     1
 10
874.288451827212
 20
923.453500687430
 11
917.439901806172
 21
893.182228044100
  0
LINE
  8
2
  6
CONTINUOUS
 62
     1
 10
835.638237913910
 20
530.437963511983
 11
752.477005060391
 21
486.245158370552
  0
LINE
  8
2
  6
CONTINUOUS
 62
     1
 10
613.166225388014
 20
959.194265003499
 11
731.536491014799
 21
955.831682797041
  0
LINE
  8
2
  6
CONTINUOUS
 62
     1
 10
731.536491014799
 20
955.831682797041
 11
859.971709802895
 21
943.315953820011
  0
LINE
  8
2
  6
CONTINUOUS
 62
     1
 10
859.971709802895
 20
943.315953820011
 11
871.807006623533
 21
939.194265003499
  0
LINE
  8
2
  6
DOT
 62
     3
 10
353.192992253300
 20
956.194265003499
 11
613.166225388014
 21
956.194265003499
  0
LINE
  8
2
  6
DOT
 62
     3
 10
613.041417551341
 20
956.196862293834
 11
731.411683178127
 21
952.834280087377
  0
LINE
  8
2
  6
DOT
 62
     3
 10
731.245525876157
 20
952.845826255261
 11
859.680744664253
 21
940.330097278230
  0
LINE
  8
2
  6
DOT
 62
     3
 10
858.985066651878
 20
940.482839757261
 11
870.820363472516
 21
936.361150940749
  0
LINE
  8
2
  6
DOT
 62
     3
 10
858.985066651878
 20
927.905690249737
 11
870.820363472516
 21
932.027379066249
  0
LINE
  8
2
  6
CONTINUOUS
 62
     1
 10
859.971709802895
 20
925.072576186987
 11
871.807006623533
 21
929.194265003499
  0
LINE
  8
2
  6
CONTINUOUS
 62
     1
 10
731.536491014799
 20
912.556847209957
 11
859.971709802895
 21
925.072576186987
  0
LINE
  8
2
  6
DOT
 62
     3
 10
731.245525876157
 20
915.542703751738
 11
859.680744664253
 21
928.058432728768
  0
LINE
  8
2
  6
DOT
 62
     3
 10
613.041417551341
 20
912.191667713164
 11
731.411683178127
 21
915.554249919622
  0
LINE
  8
2
  6
CONTINUOUS
 62
     1
 10
613.166225388014
 20
909.194265003499
 11
731.536491014799
 21
912.556847209957
  0
LINE
  8
2
  6
DOT
 62
     3
 10
353.192992253300
 20
912.194265003499
 11
613.166225388014
 21
912.194265003499
  0
LINE
  8
2
  6
CONTINUOUS
 62
     3
 10
509.192992253300
 20
956.194265003499
 11
509.192992253300
 21
912.194265003499
  0
LINE
  8
2
  6
DOT
 62
     3
 10
389.934362045306
 20
416.193795851064
 11
263.774477834298
 21
416.193795851064
  0
LINE
  8
2
  6
DOT
 62
     3
 10
389.934362045306
 20
452.194085087857
 11
263.774477834298
 21
452.194085087857
  0
LINE
  8
2
  6
DOT
 62
     3
 10
509.192992253300
 20
436.194265003499
 11
865.635427441043
 21
436.194265003499
  0
ARC
  8
2
  6
DOT
 62
     3
 10
280.880425715566
 20
-722.907329737812
 40
1185.834107579478
 50
78.517815968072
 51
82.094734436778
  0
TEXT
  8
2
 62
     3
 10
318.499359130859
 20
926.694213867188
 40
15.000000000000
 41
0.500000000000
  1
0
 50
0.000000000000
 51
0.000000000000
  7
STANDARD
  0
LINE
  8
2
  6
CONTINUOUS
 62
     3
 10
351.192992253300
 20
934.194265003499
 11
333.499281460803
 21
934.194265003499
  0
TEXT
  8
2
 62
     3
 10
310.999359130859
 20
901.694213867188
 40
15.000000000000
 41
0.500000000000
  1
25
 50
0.000000000000
 51
0.000000000000
  7
STANDARD
  0
LINE
  8
2
  6
CONTINUOUS
 62
     3
 10
351.192992253300
 20
909.194265003499
 11
333.499281460803
 21
909.194265003499
  0
LINE
  8
2
  6
CONTINUOUS
 62
     3
 10
335.499281460803
 20
934.194265003499
 11
335.499281460803
 21
909.194265003499
  0
CIRCLE
  8
2
  6
CONTINUOUS
 62
     3
 10
335.499281460803
 20
934.194265003499
 40
5.000000000000
  0
LINE
  8
2
  6
CONTINUOUS
 62
     3
 10
334.205186235290
 20
914.023894134945
 11
335.499281460803
 21
909.194265003499
  0
LINE
  8
2
  6
CONTINUOUS
 62
     3
 10
336.793376686315
 20
914.023894134945
 11
335.499281460803
 21
909.194265003499
  0
TEXT
  8
2
 62
     3
 10
310.999359130859
 20
827.694213867188
 40
15.000000000000
 41
0.500000000000
  1
99
 50
0.000000000000
 51
0.000000000000
  7
STANDARD
  0
LINE
  8
2
  6
CONTINUOUS
 62
     3
 10
351.192992253300
 20
835.194265003499
 11
333.499281460803
 21
835.194265003499
  0
LINE
  8
2
  6
CONTINUOUS
 62
     3
 10
335.499281460803
 20
909.194265003499
 11
335.499281460803
 21
835.194265003499
  0
LINE
  8
2
  6
CONTINUOUS
 62
     3
 10
334.205186235290
 20
840.023894134945
 11
335.499281460803
 21
835.194265003499
  0
LINE
  8
2
  6
CONTINUOUS
 62
     3
 10
336.793376686315
 20
840.023894134945
 11
335.499281460803
 21
835.194265003499
  0
TEXT
  8
2
 62
     3
 10
303.499359130859
 20
753.694213867188
 40
15.000000000000
 41
0.500000000000
  1
173
 50
0.000000000000
 51
0.000000000000
  7
STANDARD
  0
LINE
  8
2
  6
CONTINUOUS
 62
     3
 10
351.192992253300
 20
761.194265003499
 11
333.499281460803
 21
761.194265003499
  0
LINE
  8
2
  6
CONTINUOUS
 62
     3
 10
335.499281460803
 20
835.194265003499
 11
335.499281460803
 21
761.194265003499
  0
LINE
  8
2
  6
CONTINUOUS
 62
     3
 10
334.205186235290
 20
766.023894134945
 11
335.499281460803
 21
761.194265003499
  0
LINE
  8
2
  6
CONTINUOUS
 62
     3
 10
336.793376686315
 20
766.023894134945
 11
335.499281460803
 21
761.194265003499
  0
TEXT
  8
2
 62
     3
 10
303.499359130859
 20
679.694213867188
 40
15.000000000000
 41
0.500000000000
  1
247
 50
0.000000000000
 51
0.000000000000
  7
STANDARD
  0
LINE
  8
2
  6
CONTINUOUS
 62
     3
 10
351.192992253300
 20
687.194265003499
 11
333.499281460803
 21
687.194265003499
  0
LINE
  8
2
  6
CONTINUOUS
 62
     3
 10
335.499281460803
 20
761.194265003499
 11
335.499281460803
 21
687.194265003499
  0
LINE
  8
2
  6
CONTINUOUS
 62
     3
 10
334.205186235290
 20
692.023894134945
 11
335.499281460803
 21
687.194265003499
  0
LINE
  8
2
  6
CONTINUOUS
 62
     3
 10
336.793376686315
 20
692.023894134945
 11
335.499281460803
 21
687.194265003499
  0
TEXT
  8
2
 62
     3
 10
303.499359130859
 20
605.694213867188
 40
15.000000000000
 41
0.500000000000
  1
321
 50
0.000000000000
 51
0.000000000000
  7
STANDARD
  0
LINE
  8
2
  6
CONTINUOUS
 62
     3
 10
351.192992253300
 20
613.194265003499
 11
333.499281460803
 21
613.194265003499
  0
LINE
  8
2
  6
CONTINUOUS
 62
     3
 10
335.499281460803
 20
687.194265003499
 11
335.499281460803
 21
613.194265003499
  0
LINE
  8
2
  6
CONTINUOUS
 62
     3
 10
334.205186235290
 20
618.023894134945
 11
335.499281460803
 21
613.194265003499
  0
LINE
  8
2
  6
CONTINUOUS
 62
     3
 10
336.793376686315
 20
618.023894134945
 11
335.499281460803
 21
613.194265003499
  0
LINE
  8
2
  6
CONTINUOUS
 62
     1
 10
221.807006623533
 20
454.194265003499
 11
240.363128880654
 21
470.781659048469
  0
LINE
  8
2
  6
CONTINUOUS
 62
     1
 10
240.363128880654
 20
470.781659048469
 11
260.916382809114
 21
482.200133453169
  0
LINE
  8
2
  6
CONTINUOUS
 62
     1
 10
260.916382809114
 20
482.200133453169
 11
287.749797660160
 21
492.476760417400
  0
LINE
  8
2
  6
CONTINUOUS
 62
     1
 10
287.749797660160
 20
492.476760417400
 11
322.005220874260
 21
501.611539941160
  0
LINE
  8
2
  6
CONTINUOUS
 62
     1
 10
322.005220874260
 20
501.611539941160
 11
367.679118493061
 21
507.320777143510
  0
LINE
  8
2
  6
CONTINUOUS
 62
     1
 10
367.679118493061
 20
507.320777143510
 11
452.133162017914
 21
509.412518159605
  0
LINE
  8
2
  6
DOT
 62
     3
 10
296.807006623533
 20
452.194085087857
 11
296.807006623532
 21
416.193795851064
  0
LINE
  8
2
  6
DOT
 62
     3
 10
389.934362045306
 20
413.193795851064
 11
263.774477834298
 21
413.193795851064
  0
LINE
  8
2
  6
DOT
 62
     3
 10
389.934362045306
 20
455.194085087857
 11
263.774477834298
 21
455.194085087857
  0
LINE
  8
2
  6
CONTINUOUS
 62
     1
 10
389.934362045306
 20
413.193795851064
 11
389.934362045306
 21
416.193795851064
  0
LINE
  8
2
  6
CONTINUOUS
 62
     1
 10
389.934362045306
 20
455.194085087857
 11
389.934362045306
 21
452.194734155933
  0
LINE
  8
2
  6
CONTINUOUS
 62
     1
 10
989.863715789022
 20
383.769615803748
 11
267.803150184440
 21
272.100204406679
  0
LINE
  8
2
  6
CONTINUOUS
 62
     1
 10
871.807006623533
 20
384.194265003499
 11
970.837668333330
 21
390.829323354529
  0
ARC
  8
2
  6
CONTINUOUS
 62
     1
 10
733.463316616103
 20
532.488856879036
 40
50.000000000000
 50
264.486470996416
 51
292.350641560349
  0
ARC
  8
2
  6
CONTINUOUS
 62
     1
 10
854.651926358197
 20
484.194265003499
 40
50.000000000000
 50
90.000000000000
 51
112.350641560349
  0
LINE
  8
2
  6
CONTINUOUS
 62
     1
 10
970.837668333330
 20
390.829323354529
 11
955.207291655486
 21
534.194265003499
  0
LINE
  8
2
  6
CONTINUOUS
 62
     1
 10
594.192992253300
 20
986.881458273657
 11
567.060458210581
 21
1284.194265003499
  0
LINE
  8
2
  6
CONTINUOUS
 62
     1
 10
509.192992253300
 20
964.194265003499
 11
594.192992253300
 21
986.881458273657
  0
LINE
  8
2
  6
CONTINUOUS
 62
     1
 10
567.060458210580
 20
1284.194265003499
 11
509.192992253300
 21
1284.194265003499
  0
LINE
  8
2
  6
CONTINUOUS
 62
     1
 10
509.192992253300
 20
1284.194265003499
 11
509.192992253300
 21
964.194265003499
  0
LINE
  8
2
  6
CONTINUOUS
 62
     1
 10
594.192992253300
 20
881.507071733341
 11
567.060458210581
 21
584.194265003499
  0
LINE
  8
2
  6
CONTINUOUS
 62
     1
 10
509.192992253300
 20
904.194265003499
 11
594.192992253300
 21
881.507071733341
  0
LINE
  8
2
  6
CONTINUOUS
 62
     1
 10
567.060458210580
 20
584.194265003499
 11
509.192992253300
 21
584.194265003499
  0
LINE
  8
2
  6
CONTINUOUS
 62
     1
 10
509.192992253300
 20
584.194265003499
 11
509.192992253300
 21
904.194265003499
  0
LINE
  8
2
  6
CONTINUOUS
 62
     1
 10
838.994418462729
 20
1009.194265003499
 11
838.994418462729
 21
859.194265003499
  0
LINE
  8
2
  6
CONTINUOUS
 62
     1
 10
834.994418462729
 20
1009.194265003499
 11
834.994418462729
 21
859.194265003499
  0
LINE
  8
2
  6
CONTINUOUS
 62
     1
 10
838.994418462729
 20
1009.194265003499
 11
834.994418462729
 21
1009.194265003499
  0
LINE
  8
2
  6
CONTINUOUS
 62
     1
 10
838.994418462729
 20
859.194265003499
 11
834.994418462729
 21
859.194265003499
  0
ARC
  8
2
  6
CONTINUOUS
 62
     1
 10
372.469583045144
 20
427.017103959045
 40
21.635954884980
 50
117.010451597421
 51
134.654254618834
  0
ARC
  8
2
  6
CONTINUOUS
 62
     1
 10
365.644777714275
 20
433.412822029001
 40
12.294900452054
 50
132.977226914323
 51
168.673852600694
  0
ARC
  8
2
  6
CONTINUOUS
 62
     1
 10
384.294357077365
 20
404.401252648767
 40
47.155948110787
 50
100.996488387630
 51
117.874823527819
  0
ARC
  8
2
  6
CONTINUOUS
 62
     1
 10
390.168990980335
 20
377.906811833724
 40
74.287922322210
 50
89.760489826667
 51
101.546398512362
  0
ARC
  8
2
  6
CONTINUOUS
 62
     1
 10
372.036002071685
 20
-149.067589498547
 40
601.544483063673
 50
86.070742780972
 51
88.243019327114
  0
ARC
  8
2
  6
CONTINUOUS
 62
     1
 10
226.005120190167
 20
-1378.518098772143
 40
1839.138338303207
 50
83.203360486570
 51
84.156313930594
  0
ARC
  8
2
  6
CONTINUOUS
 62
     1
 10
281.115054650595
 20
-722.907329737812
 40
1181.834107579478
 50
78.981163743282
 51
82.094734436778
  0
ARC
  8
2
  6
CONTINUOUS
 62
     1
 10
506.427621188329
 20
434.194265003499
 40
3.000000000000
 50
-78.981163743283
 51
78.981163743283
  0
ARC
  8
2
  6
DOT
 62
     3
 10
281.115054650595
 20
-722.907329737812
 40
1178.834107579478
 50
78.981163743282
 51
82.093324049053
  0
ARC
  8
2
  6
DOT
 62
     3
 10
226.005120190167
 20
-1378.518098772143
 40
1836.138338303207
 50
83.204266392761
 51
84.154748509702
  0
ARC
  8
2
  6
DOT
 62
     3
 10
372.036002071685
 20
-149.067589498547
 40
598.544483063673
 50
86.075536901338
 51
88.239181757275
  0
ARC
  8
2
  6
DOT
 62
     3
 10
390.168990980335
 20
377.906811833724
 40
71.287922322210
 50
89.792132364120
 51
101.558040408744
  0
ARC
  8
2
  6
DOT
 62
     3
 10
384.294357077365
 20
404.401252648767
 40
44.155948110787
 50
100.977921976298
 51
117.342236795387
  0
ARC
  8
2
  6
DOT
 62
     3
 10
372.469583045144
 20
427.017103959045
 40
18.635954884980
 50
116.985180275750
 51
134.793652357027
  0
ARC
  8
2
  6
DOT
 62
     3
 10
365.644777714275
 20
433.412822029001
 40
9.294900452054
 50
132.715387526450
 51
168.670883890032
  0
LINE
  8
2
  6
DOT
 62
     3
 10
389.427621188330
 20
449.183925061302
 11
389.427621188330
 21
419.204604945697
  0
CIRCLE
  8
2
  6
CONTINUOUS
 62
     1
 10
410.427621188330
 20
434.194265003499
 40
7.109649662732
  0
LINE
  8
2
  6
CONTINUOUS
 62
     1
 10
410.427621188330
 20
461.837625110180
 11
410.427621188330
 21
406.550904896818
  0
ARC
  8
2
  6
CONTINUOUS
 62
     1
 10
361.756375708744
 20
434.194265003499
 40
8.328754520414
 50
168.582024093137
 51
191.417975906863
  0
LINE
  8
2
  6
CONTINUOUS
 62
     1
 10
341.773454687414
 20
434.194265003499
 11
359.472090014700
 21
434.194265003499
  0
ARC
  8
2
  6
CONTINUOUS
 62
     1
 10
281.115054650595
 20
1591.295859744809
 40
1181.834107579478
 50
277.905265563222
 51
281.018836256718
  0
ARC
  8
2
  6
DOT
 62
     3
 10
281.115054650595
 20
1591.295859744809
 40
1178.834107579478
 50
277.906675950947
 51
281.018836256718
  0
ARC
  8
2
  6
CONTINUOUS
 62
     1
 10
226.005120190167
 20
2246.906628779141
 40
1839.138338303207
 50
275.843686069407
 51
276.796639513430
  0
ARC
  8
2
  6
DOT
 62
     3
 10
226.005120190167
 20
2246.906628779141
 40
1836.138338303207
 50
275.845251490298
 51
276.795733607239
  0
ARC
  8
2
  6
CONTINUOUS
 62
     1
 10
372.036002071685
 20
1017.456119505546
 40
601.544483063673
 50
271.756980672886
 51
273.929257219028
  0
ARC
  8
2
  6
DOT
 62
     3
 10
372.036002071685
 20
1017.456119505546
 40
598.544483063673
 50
271.760818242725
 51
273.924463098662
  0
ARC
  8
2
  6
CONTINUOUS
 62
     1
 10
390.168990980335
 20
490.481718173274
 40
74.287922322210
 50
258.453601487638
 51
270.239510173333
  0
ARC
  8
2
  6
DOT
 62
     3
 10
390.168990980335
 20
490.481718173274
 40
71.287922322210
 50
258.441959591256
 51
270.207867635880
  0
ARC
  8
2
  6
DOT
 62
     3
 10
384.294357077365
 20
463.987277358231
 40
44.155948110787
 50
242.657763204613
 51
259.022078023703
  0
ARC
  8
2
  6
DOT
 62
     3
 10
372.469583045144
 20
441.371426047953
 40
18.635954884980
 50
225.206347642973
 51
243.014819724251
  0
ARC
  8
2
  6
DOT
 62
     3
 10
365.644777714275
 20
434.975707977997
 40
9.294900452054
 50
191.329116109968
 51
227.284612473549
  0
ARC
  8
2
  6
CONTINUOUS
 62
     1
 10
384.294357077365
 20
463.987277358231
 40
47.155948110787
 50
242.125176472181
 51
259.003511612370
  0
ARC
  8
2
  6
CONTINUOUS
 62
     1
 10
372.469583045144
 20
441.371426047953
 40
21.635954884980
 50
225.345745381166
 51
242.989548402579
  0
ARC
  8
2
  6
CONTINUOUS
 62
     1
 10
365.644777714275
 20
434.975707977997
 40
12.294900452054
 50
191.326147399306
 51
227.022773085677
  0
LINE
  8
2
  6
CONTINUOUS
 62
     1
 10
1408.509394074144
 20
571.868099308636
 11
1710.822200803987
 21
544.735565265918
  0
LINE
  8
2
  6
CONTINUOUS
 62
     1
 10
1385.822200803987
 20
486.868099308636
 11
1408.509394074144
 21
571.868099308636
  0
LINE
  8
2
  6
CONTINUOUS
 62
     1
 10
1710.822200803987
 20
544.735565265917
 11
1710.822200803987
 21
486.868099308636
  0
LINE
  8
2
  6
CONTINUOUS
 62
     1
 10
1710.822200803987
 20
486.868099308636
 11
1385.822200803987
 21
486.868099308636
  0
LINE
  8
2
  6
CONTINUOUS
 62
     1
 10
1814.669660160100
 20
793.569418941823
 11
1814.669660160100
 21
643.569418941823
  0
LINE
  8
2
  6
CONTINUOUS
 62
     1
 10
1814.669660160100
 20
643.569418941823
 11
1913.700321869896
 21
650.204477292853
  0
LINE
  8
2
  6
CONTINUOUS
 62
     1
 10
1913.700321869896
 20
650.204477292853
 11
1896.897944778408
 21
793.569418941823
  0
LINE
  8
2
  6
CONTINUOUS
 62
     1
 10
1814.669660160100
 20
793.569418941823
 11
1896.897944778407
 21
793.569418941823
  0
LINE
  8
2
  6
CONTINUOUS
 62
     1
 10
970.837668333331
 20
937.194265003499
 11
970.837668333331
 21
931.194265003499
  0
LINE
  8
2
  6
CONTINUOUS
 62
     1
 10
1134.705644342155
 20
744.450184577542
 11
1175.310909372999
 21
727.968904316283
  0
LINE
  8
2
  6
CONTINUOUS
 62
     1
 10
1175.310909372999
 20
727.968904316283
 11
1326.476100534745
 21
723.402265822241
  0
LINE
  8
2
  6
CONTINUOUS
 62
     1
 10
1326.476100534745
 20
723.402265822241
 11
1391.148409436501
 21
728.638890024812
  0
LINE
  8
2
  6
CONTINUOUS
 62
     1
 10
1426.485483554261
 20
747.148785991258
 11
1391.148409436501
 21
728.638890024812
  0
LINE
  8
2
  6
CONTINUOUS
 62
     1
 10
1441.125732777030
 20
764.717085058580
 11
1426.485483554261
 21
747.148785991258
  0
LINE
  8
2
  6
CONTINUOUS
 62
     1
 10
787.663013643366
 20
953.376487332844
 11
874.425067713665
 21
944.921716402559
  0
LINE
  8
2
  6
CONTINUOUS
 62
     1
 10
787.663013643366
 20
915.012042674155
 11
874.425067713665
 21
923.466813604439
  0
LINE
  8
2
  6
CONTINUOUS
 62
     1
 10
1824.728081018709
 20
440.862771513432
 11
1839.504969181516
 21
559.375789837183
  0
LINE
  8
2
  6
CONTINUOUS
 62
     1
 10
1911.490135089008
 20
432.408000583148
 11
1954.504969181516
 21
460.790086705402
  0
LINE
  8
2
  6
CONTINUOUS
 62
     1
 10
1824.728081018709
 20
440.862771513432
 11
1911.490135089008
 21
432.408000583148
  0
LINE
  8
2
  6
CONTINUOUS
 62
     1
 10
1954.504969181516
 20
575.790086705403
 11
1954.504969181516
 21
460.790086705402
  0
LINE
  8
2
  6
CONTINUOUS
 62
     1
 10
1839.504969181516
 20
559.375789837183
 11
1954.504969181515
 21
575.790086705403
  0
LINE
  8
2
  6
CONTINUOUS
 62
     1
 10
1102.438974654485
 20
716.994961263189
 11
1120.995096911606
 21
733.582355308159
  0
LINE
  8
2
  6
CONTINUOUS
 62
     1
 10
1120.995096911606
 20
733.582355308159
 11
1141.548350840067
 21
749.874137657207
  0
LINE
  8
2
  6
CONTINUOUS
 62
     1
 10
1141.548350840067
 20
749.874137657207
 11
1168.381765691112
 21
760.150764621437
  0
LINE
  8
2
  6
CONTINUOUS
 62
     1
 10
1168.381765691112
 20
760.150764621437
 11
1202.637188905213
 21
769.285544145197
  0
LINE
  8
2
  6
CONTINUOUS
 62
     1
 10
1202.637188905213
 20
769.285544145197
 11
1248.311086524014
 21
774.994781347547
  0
LINE
  8
2
  6
CONTINUOUS
 62
     1
 10
1248.311086524014
 20
774.994781347547
 11
1332.765130048866
 21
777.086522363643
  0
LINE
  8
2
  6
CONTINUOUS
 62
     1
 10
1609.291245225682
 20
745.520876189888
 11
1332.765130048867
 21
777.086522363643
  0
ARC
  8
2
  6
CONTINUOUS
 62
     1
 10
1614.095284647055
 20
795.289553138726
 40
50.000000000000
 50
264.486470996416
 51
292.350641560349
  0
LINE
  8
2
  6
CONTINUOUS
 62
     1
 10
1716.270205944863
 20
793.238659771673
 11
1633.108973091344
 21
749.045854630242
  0
ARC
  8
2
  6
CONTINUOUS
 62
     1
 10
1735.283894389150
 20
746.994961263189
 40
50.000000000000
 50
90.000000000000
 51
112.350641560349
  0
LINE
  8
2
  6
CONTINUOUS
 62
     1
 10
1752.438974654486
 20
796.994961263189
 11
1752.438974654486
 21
646.994961263189
  0
LINE
  8
2
  6
CONTINUOUS
 62
     1
 10
1752.438974654486
 20
796.994961263189
 11
1735.283894389150
 21
796.994961263189
  0
LINE
  8
2
  6
CONTINUOUS
 62
     1
 10
1388.950397567839
 20
635.640133991026
 11
1281.824960284253
 21
623.994492110755
  0
LINE
  8
2
  6
CONTINUOUS
 62
     1
 10
1206.824960284253
 20
623.994492110755
 11
1281.824960284253
 21
623.994492110755
  0
LINE
  8
2
  6
CONTINUOUS
 62
     1
 10
1206.824960284253
 20
623.994492110755
 11
1168.136804480152
 21
629.271742546287
  0
LINE
  8
2
  6
CONTINUOUS
 62
     1
 10
1110.743510588493
 20
662.295514042168
 11
1168.136804480152
 21
629.271742546287
  0
LINE
  8
2
  6
CONTINUOUS
 62
     1
 10
1102.438974654485
 20
676.994961263189
 11
1110.743510588493
 21
662.295514042168
  0
LINE
  8
2
  6
CONTINUOUS
 62
     1
 10
1102.438974654485
 20
716.994961263189
 11
1102.438974654485
 21
676.994961263189
  0
ARC
  8
2
  6
CONTINUOUS
 62
     1
 10
1242.388343739697
 20
696.994961263189
 40
8.328754520414
 50
168.582024093137
 51
191.417975906863
  0
ARC
  8
2
  6
CONTINUOUS
 62
     1
 10
1246.276745745228
 20
696.213518288691
 40
12.294900452054
 50
132.977226914323
 51
168.673852600694
  0
ARC
  8
2
  6
CONTINUOUS
 62
     1
 10
1246.276745745228
 20
697.776404237687
 40
12.294900452054
 50
191.326147399306
 51
227.022773085677
  0
ARC
  8
2
  6
CONTINUOUS
 62
     1
 10
1253.101551076096
 20
704.172122307643
 40
21.635954884980
 50
225.345745381166
 51
242.989548402579
  0
ARC
  8
2
  6
CONTINUOUS
 62
     1
 10
1264.926325108318
 20
726.787973617921
 40
47.155948110787
 50
242.125176472181
 51
259.003511612370
  0
ARC
  8
2
  6
CONTINUOUS
 62
     1
 10
1270.800959011288
 20
753.282414432964
 40
74.287922322210
 50
258.453601487638
 51
270.239510173333
  0
ARC
  8
2
  6
CONTINUOUS
 62
     1
 10
1252.667970102638
 20
1280.256815765236
 40
601.544483063673
 50
271.756980672886
 51
273.929257219028
  0
ARC
  8
2
  6
CONTINUOUS
 62
     1
 10
1253.101551076096
 20
689.817800218735
 40
21.635954884980
 50
117.010451597421
 51
134.654254618834
  0
ARC
  8
2
  6
CONTINUOUS
 62
     1
 10
1264.926325108318
 20
667.201948908458
 40
47.155948110787
 50
100.996488387630
 51
117.874823527819
  0
ARC
  8
2
  6
CONTINUOUS
 62
     1
 10
1270.800959011288
 20
640.707508093414
 40
74.287922322210
 50
89.760489826667
 51
101.546398512362
  0
ARC
  8
2
  6
CONTINUOUS
 62
     1
 10
1252.667970102638
 20
113.733106761143
 40
601.544483063673
 50
86.070742780972
 51
88.243019327114
  0
ARC
  8
2
  6
CONTINUOUS
 62
     1
 10
1106.637088221119
 20
-1115.717402512453
 40
1839.138338303207
 50
83.203360486570
 51
84.156313930594
  0
ARC
  8
2
  6
CONTINUOUS
 62
     1
 10
1106.637088221119
 20
2509.707325038831
 40
1839.138338303207
 50
275.843686069407
 51
276.796639513430
  0
ARC
  8
2
  6
CONTINUOUS
 62
     1
 10
1161.747022681548
 20
1854.096556004499
 40
1181.834107579478
 50
277.905265563222
 51
281.018836256718
  0
ARC
  8
2
  6
CONTINUOUS
 62
     1
 10
1161.747022681548
 20
-460.106633478121
 40
1181.834107579478
 50
78.981163743282
 51
82.094734436778
  0
ARC
  8
2
  6
CONTINUOUS
 62
     1
 10
1387.059589219281
 20
696.994961263190
 40
3.000000000000
 50
-78.981163743283
 51
78.981163743283
  0
CIRCLE
  8
2
  6
CONTINUOUS
 62
     1
 10
1717.626386493682
 20
696.994961263189
 40
2.000000000000
  0
LINE
  8
2
  6
CONTINUOUS
 62
     1
 10
1752.438974654486
 20
646.994961263189
 11
1666.493877088526
 21
653.232144084422
  0
LINE
  8
2
  6
CONTINUOUS
 62
     1
 10
1449.993877088525
 20
643.232144084422
 11
1388.950397567836
 21
635.640133991025
  0
LINE
  8
2
  6
CONTINUOUS
 62
     1
 10
1666.493877088525
 20
653.232144084422
 11
1449.993877088526
 21
643.232144084422
  0
LINE
  8
2
  6
DOT
 62
     3
 10
228.974477834298
 20
417.654265003499
 11
228.974477834298
 21
405.654265003499
  0
LINE
  8
2
  6
DOT
 62
     3
 10
244.974477834298
 20
417.654265003499
 11
228.974477834298
 21
417.654265003499
  0
LINE
  8
2
  6
DOT
 62
     3
 10
244.974477834298
 20
405.654265003499
 11
228.974477834298
 21
405.654265003499
  0
LINE
  8
2
  6
DOT
 62
     3
 10
244.974477834298
 20
417.654265003499
 11
244.974477834298
 21
405.654265003499
  0
LINE
  8
2
  6
DOT
 62
     3
 10
246.974477834299
 20
406.654265003499
 11
244.974477834298
 21
406.654265003499
  0
LINE
  8
2
  6
DOT
 62
     3
 10
246.974477834299
 20
416.654265003499
 11
244.974477834298
 21
416.654265003499
  0
LINE
  8
2
  6
DOT
 62
     3
 10
256.174477834298
 20
422.854265003499
 11
256.174477834298
 21
400.454265003499
  0
LINE
  8
2
  6
DOT
 62
     3
 10
249.474477834298
 20
423.654265003499
 11
249.474477834298
 21
399.654265003499
  0
LINE
  8
2
  6
DOT
 62
     3
 10
249.474477834298
 20
423.654265003499
 11
255.374477834298
 21
423.654265003499
  0
LINE
  8
2
  6
DOT
 62
     3
 10
249.474477834298
 20
399.654265003499
 11
255.374477834298
 21
399.654265003499
  0
ARC
  8
2
  6
DOT
 62
     3
 10
255.374477834298
 20
422.854265003499
 40
0.800000000000
 50
0.000000000000
 51
90.000000000000
  0
ARC
  8
2
  6
DOT
 62
     3
 10
255.374477834298
 20
400.454265003499
 40
0.800000000000
 50
270.000000000000
 51
360.000000000000
  0
LINE
  8
2
  6
DOT
 62
     3
 10
256.774477834298
 20
421.654265003499
 11
256.774477834298
 21
401.654265003499
  0
LINE
  8
2
  6
DOT
 62
     3
 10
256.774477834298
 20
401.654265003499
 11
256.174477834298
 21
401.654265003499
  0
LINE
  8
2
  6
DOT
 62
     3
 10
256.774477834298
 20
421.654265003499
 11
256.174477834298
 21
421.654265003499
  0
LINE
  8
2
  6
DOT
 62
     3
 10
261.774477834298
 20
416.654265003499
 11
261.774477834298
 21
406.654265003499
  0
LINE
  8
2
  6
DOT
 62
     3
 10
261.774477834298
 20
416.654265003499
 11
256.774477834298
 21
416.654265003499
  0
LINE
  8
2
  6
DOT
 62
     3
 10
261.774477834298
 20
406.654265003499
 11
256.774477834298
 21
406.654265003499
  0
LINE
  8
2
  6
DOT
 62
     3
 10
246.974477834298
 20
422.109127629140
 11
246.974477834298
 21
401.199402377857
  0
LINE
  8
2
  6
DOT
 62
     3
 10
249.474477834298
 20
422.109127629140
 11
247.142641940497
 21
422.109127629140
  0
LINE
  8
2
  6
DOT
 62
     3
 10
249.474477834298
 20
401.199402377857
 11
247.142641940497
 21
401.199402377857
  0
LINE
  8
2
  6
DOT
 62
     3
 10
226.001243301405
 20
415.534265003499
 11
222.501243301405
 21
415.534265003499
  0
LINE
  8
2
  6
DOT
 62
     3
 10
226.001243301405
 20
407.774265003499
 11
222.501243301405
 21
407.774265003499
  0
LINE
  8
2
  6
DOT
 62
     3
 10
222.501243301405
 20
416.534265003499
 11
222.501243301405
 21
406.774265003499
  0
LINE
  8
2
  6
DOT
 62
     3
 10
221.501243301404
 20
416.534265003499
 11
221.501243301405
 21
406.774265003499
  0
LINE
  8
2
  6
DOT
 62
     3
 10
226.001243301405
 20
416.534265003499
 11
226.001243301405
 21
406.774265003499
  0
LINE
  8
2
  6
DOT
 62
     3
 10
227.001243301405
 20
416.534265003499
 11
227.001243301405
 21
406.774265003499
  0
LINE
  8
2
  6
DOT
 62
     3
 10
227.001243301405
 20
416.534265003499
 11
226.001243301405
 21
416.534265003499
  0
LINE
  8
2
  6
DOT
 62
     3
 10
218.719484062862
 20
411.654265003499
 11
265.636522294497
 21
411.654265003499
  0
LINE
  8
2
  6
DOT
 62
     3
 10
222.501243301405
 20
416.534265003499
 11
221.501243301405
 21
416.534265003499
  0
LINE
  8
2
  6
DOT
 62
     3
 10
227.001243301405
 20
406.774265003499
 11
226.001243301405
 21
406.774265003499
  0
LINE
  8
2
  6
DOT
 62
     3
 10
222.501243301405
 20
406.774265003499
 11
221.501243301405
 21
406.774265003499
  0
LINE
  8
2
  6
DOT
 62
     3
 10
227.001243301405
 20
421.259265003499
 11
221.501243301404
 21
421.259265003499
  0
LINE
  8
2
  6
DOT
 62
     3
 10
221.501243301404
 20
447.129265003499
 11
227.001243301405
 21
447.129265003499
  0
LINE
  8
2
  6
DOT
 62
     3
 10
227.001243301405
 20
421.259265003499
 11
227.001243301405
 21
447.129265003499
  0
LINE
  8
2
  6
DOT
 62
     3
 10
221.501243301404
 20
447.129265003499
 11
221.501243301404
 21
421.259265003499
  0
LINE
  8
2
  6
DOT
 62
     3
 10
229.474477834298
 20
403.154265003499
 11
229.474477834298
 21
444.994265003499
  0
LINE
  8
2
  6
DOT
 62
     3
 10
234.474477834298
 20
403.154265003499
 11
234.474477834298
 21
444.994265003499
  0
LINE
  8
2
  6
DOT
 62
     3
 10
234.474477834298
 20
403.154265003499
 11
229.474477834298
 21
403.154265003499
  0
LINE
  8
2
  6
DOT
 62
     3
 10
234.474477834298
 20
444.994265003499
 11
229.474477834298
 21
444.994265003499
  0
LINE
  8
2
  6
DOT
 62
     3
 10
239.474477834298
 20
403.154265003499
 11
239.474477834298
 21
444.994265003499
  0
LINE
  8
2
  6
DOT
 62
     3
 10
244.474477834298
 20
403.154265003499
 11
244.474477834298
 21
444.994265003499
  0
LINE
  8
2
  6
DOT
 62
     3
 10
244.474477834298
 20
403.154265003499
 11
239.474477834298
 21
403.154265003499
  0
LINE
  8
2
  6
DOT
 62
     3
 10
244.474477834298
 20
444.994265003499
 11
239.474477834298
 21
444.994265003499
  0
LINE
  8
2
  6
DOT
 62
     3
 10
289.624589623525
 20
443.444265003499
 11
229.624589623525
 21
443.444265003499
  0
LINE
  8
2
  6
DOT
 62
     3
 10
289.624589623525
 20
439.544265003499
 11
229.624589623525
 21
439.544265003499
  0
LINE
  8
2
  6
DOT
 62
     3
 10
289.624589623525
 20
424.944265003499
 11
229.624589623525
 21
424.944265003499
  0
LINE
  8
2
  6
DOT
 62
     3
 10
289.624589623525
 20
428.844265003498
 11
229.624589623525
 21
428.844265003499
  0
LINE
  8
2
  6
DOT
 62
     3
 10
289.624589623525
 20
436.144265003499
 11
229.624589623525
 21
436.144265003499
  0
LINE
  8
2
  6
DOT
 62
     3
 10
289.624589623525
 20
432.244265003499
 11
229.624589623525
 21
432.244265003499
  0
LINE
  8
2
  6
DOT
 62
     3
 10
289.624589623525
 20
443.444265003499
 11
289.624589623525
 21
439.544265003499
  0
LINE
  8
2
  6
DOT
 62
     3
 10
289.624589623525
 20
436.144265003499
 11
289.624589623525
 21
432.244265003499
  0
LINE
  8
2
  6
DOT
 62
     3
 10
289.624589623525
 20
428.844265003498
 11
289.624589623525
 21
424.944265003499
  0
LINE
  8
2
  6
DOT
 62
     3
 10
260.774477834298
 20
419.084224759673
 11
260.774477834298
 21
449.304305247324
  0
LINE
  8
2
  6
DOT
 62
     3
 10
263.774477834298
 20
419.084224759673
 11
263.774477834298
 21
449.304305247324
  0
LINE
  8
2
  6
DOT
 62
     3
 10
263.774477834298
 20
449.304305247324
 11
260.774477834298
 21
449.304305247324
  0
LINE
  8
2
  6
DOT
 62
     3
 10
263.774477834298
 20
419.084224759673
 11
260.774477834298
 21
419.084224759673
  0
LINE
  8
2
  6
DOT
 62
     3
 10
214.201243301404
 20
424.694265003499
 11
214.201243301404
 21
443.694265003499
  0
LINE
  8
2
  6
DOT
 62
     3
 10
218.201243301404
 20
424.694265003499
 11
218.201243301404
 21
426.694265003499
  0
LINE
  8
2
  6
DOT
 62
     3
 10
218.201243301404
 20
443.694265003499
 11
214.201243301404
 21
443.694265003499
  0
LINE
  8
2
  6
DOT
 62
     3
 10
218.201243301404
 20
424.694265003499
 11
214.201243301404
 21
424.694265003499
  0
LINE
  8
2
  6
DOT
 62
     3
 10
217.001243301405
 20
426.694265003499
 11
217.001243301405
 21
431.845849489590
  0
LINE
  8
2
  6
DOT
 62
     3
 10
218.201243301404
 20
426.694265003499
 11
217.001243301405
 21
426.694265003499
  0
LINE
  8
2
  6
DOT
 62
     3
 10
218.201243301404
 20
441.694265003499
 11
217.001243301405
 21
441.694265003499
  0
LINE
  8
2
  6
DOT
 62
     3
 10
218.201243301404
 20
437.194265003499
 11
217.001243301405
 21
437.194265003499
  0
LINE
  8
2
  6
DOT
 62
     3
 10
218.201243301404
 20
441.694265003499
 11
218.201243301404
 21
443.694265003499
  0
LINE
  8
2
  6
DOT
 62
     3
 10
218.201243301404
 20
431.194265003499
 11
217.001243301405
 21
431.194265003499
  0
LINE
  8
2
  6
DOT
 62
     3
 10
218.201243301404
 20
431.194265003499
 11
218.201243301404
 21
437.194265003499
  0
LINE
  8
2
  6
DOT
 62
     3
 10
217.001243301405
 20
436.557696151647
 11
217.001243301404
 21
441.694265003499
  0
LINE
  8
2
  6
DOT
 62
     3
 10
214.201243301404
 20
435.694265003499
 11
205.201243301404
 21
435.694265003499
  0
LINE
  8
2
  6
DOT
 62
     3
 10
214.201243301404
 20
432.694265003499
 11
205.201243301404
 21
432.694265003499
  0
LINE
  8
2
  6
DOT
 62
     3
 10
205.201243301404
 20
432.694265003499
 11
205.201243301404
 21
435.694265003499
  0
LINE
  8
2
  6
DOT
 62
     3
 10
212.201243301404
 20
431.894265003499
 11
212.201243301404
 21
436.494265003499
  0
LINE
  8
2
  6
DOT
 62
     3
 10
214.201243301404
 20
436.494265003499
 11
212.201243301404
 21
436.494265003499
  0
LINE
  8
2
  6
DOT
 62
     3
 10
214.201243301404
 20
431.894265003499
 11
212.201243301404
 21
431.894265003499
  0
LINE
  8
2
  6
DOT
 62
     3
 10
214.201243301404
 20
435.582831325014
 11
212.201243301404
 21
435.582831325014
  0
LINE
  8
2
  6
DOT
 62
     3
 10
214.201243301404
 20
432.805698681983
 11
212.201243301404
 21
432.805698681983
  0
LINE
  8
2
  6
DOT
 62
     3
 10
221.501243301404
 20
432.694265003499
 11
218.201243301404
 21
432.694265003499
  0
LINE
  8
2
  6
DOT
 62
     3
 10
221.501243301404
 20
435.694265003499
 11
218.201243301404
 21
435.694265003499
  0
LINE
  8
2
  6
DOT
 62
     3
 10
263.774477834298
 20
455.194085087857
 11
263.774477834298
 21
413.193795851064
  0
LINE
  8
2
  6
DASHDOT
 62
     3
 10
170.353607686835
 20
434.194265003499
 11
518.617077030195
 21
434.194265003499
  0
LINE
  8
2
  6
CONTINUOUS
 62
     3
 10
353.427621188330
 20
436.953142018036
 11
353.427621188330
 21
472.781659048470
  0
LINE
  8
2
  6
CONTINUOUS
 62
     3
 10
509.192992253300
 20
436.953142018036
 11
509.192992253300
 21
472.781659048470
  0
LINE
  8
2
  6
CONTINUOUS
 62
     3
 10
353.427621188330
 20
470.781659048470
 11
509.192992253300
 21
470.781659048470
  0
LINE
  8
2
  6
CONTINUOUS
 62
     3
 10
353.427621188330
 20
470.781659048470
 11
358.257250319775
 21
472.075754273983
  0
LINE
  8
2
  6
CONTINUOUS
 62
     3
 10
353.427621188330
 20
470.781659048470
 11
358.257250319775
 21
469.487563822958
  0
LINE
  8
2
  6
CONTINUOUS
 62
     3
 10
504.363363121854
 20
469.487563822958
 11
509.192992253300
 21
470.781659048470
  0
LINE
  8
2
  6
CONTINUOUS
 62
     3
 10
504.363363121854
 20
472.075754273983
 11
509.192992253300
 21
470.781659048470
  0
TEXT
  8
2
 62
     3
 10
420.060394287109
 20
472.781646728516
 40
15.000000000000
 41
0.500000000000
  1
156
 50
0.000000000000
 51
0.000000000000
  7
STANDARD
  0
LINE
  8
2
  6
CONTINUOUS
 62
     3
 10
388.168990980335
 20
416.193795851065
 11
340.273012942607
 21
416.193795851065
  0
LINE
  8
2
  6
CONTINUOUS
 62
     3
 10
388.479531503287
 20
452.194085087857
 11
340.273012942607
 21
452.194085087857
  0
LINE
  8
2
  6
CONTINUOUS
 62
     3
 10
342.273012942607
 20
416.193795851065
 11
342.273012942607
 21
452.194085087857
  0
LINE
  8
2
  6
CONTINUOUS
 62
     3
 10
342.273012942607
 20
416.193795851065
 11
340.978917717094
 21
421.023424982510
  0
LINE
  8
2
  6
CONTINUOUS
 62
     3
 10
342.273012942607
 20
416.193795851065
 11
343.567108168120
 21
421.023424982510
  0
LINE
  8
2
  6
CONTINUOUS
 62
     3
 10
343.567108168120
 20
447.364455956412
 11
342.273012942607
 21
452.194085087857
  0
LINE
  8
2
  6
CONTINUOUS
 62
     3
 10
340.978917717094
 20
447.364455956412
 11
342.273012942607
 21
452.194085087857
  0
TEXT
  8
2
 62
     3
 10
340.273040771484
 20
426.693878173828
 40
15.000000000000
 41
0.500000000000
  1
36
 50
90.000000000000
 51
0.000000000000
  7
STANDARD
  0
LINE
  8
2
  6
CONTINUOUS
 62
     3
 10
509.192992253300
 20
582.194265003499
 11
509.192992253300
 21
543.001742679022
  0
LINE
  8
2
  6
CONTINUOUS
 62
     3
 10
567.060458210580
 20
582.194265003499
 11
567.060458210580
 21
543.001742679022
  0
LINE
  8
2
  6
CONTINUOUS
 62
     3
 10
509.192992253300
 20
545.001742679022
 11
567.060458210580
 21
545.001742679022
  0
LINE
  8
2
  6
CONTINUOUS
 62
     3
 10
509.192992253300
 20
545.001742679022
 11
514.022621384745
 21
546.295837904534
  0
LINE
  8
2
  6
CONTINUOUS
 62
     3
 10
509.192992253300
 20
545.001742679022
 11
514.022621384745
 21
543.707647453509
  0
LINE
  8
2
  6
CONTINUOUS
 62
     3
 10
562.230829079135
 20
543.707647453509
 11
567.060458210580
 21
545.001742679022
  0
LINE
  8
2
  6
CONTINUOUS
 62
     3
 10
562.230829079135
 20
546.295837904534
 11
567.060458210580
 21
545.001742679022
  0
TEXT
  8
2
 62
     3
 10
530.626831054688
 20
547.001708984375
 40
15.000000000000
 41
0.500000000000
  1
58
 50
0.000000000000
 51
0.000000000000
  7
STANDARD
  0
LINE
  8
2
  6
CONTINUOUS
 62
     1
 10
1739.928612829703
 20
930.650246518622
 11
1354.928612829703
 21
930.650246518622
  0
LINE
  8
2
  6
CONTINUOUS
 62
     1
 10
1354.928612829703
 20
952.650246518622
 11
1354.928612829703
 21
908.650246518622
  0
LINE
  8
2
  6
CONTINUOUS
 62
     1
 10
1354.928612829703
 20
908.650246518622
 11
1461.679729299153
 21
908.650246518622
  0
LINE
  8
2
  6
CONTINUOUS
 62
     1
 10
1354.928612829703
 20
952.650246518622
 11
1461.679729299156
 21
952.650246518622
  0
LINE
  8
2
  6
CONTINUOUS
 62
     1
 10
1553.919663658117
 20
950.971552705728
 11
1574.108726472255
 21
950.130907154114
  0
LINE
  8
2
  6
CONTINUOUS
 62
     1
 10
1553.919663658115
 20
910.328940331516
 11
1574.108726472251
 21
911.169585883130
  0
LINE
  8
2
  6
CONTINUOUS
 62
     1
 10
1658.349241378465
 20
918.256549755375
 11
1722.566850772517
 21
924.514414243891
  0
LINE
  8
2
  6
CONTINUOUS
 62
     1
 10
1658.349241378469
 20
943.043943281868
 11
1722.566850772517
 21
936.786078793353
  0
LINE
  8
2
  6
CONTINUOUS
 62
     1
 10
1721.871172760141
 20
936.938821272384
 11
1739.928612829703
 21
930.650246518622
  0
LINE
  8
2
  6
CONTINUOUS
 62
     1
 10
1721.871172760141
 20
924.361671764860
 11
1739.928612829703
 21
930.650246518622
  0
LINE
  8
2
  6
CONTINUOUS
 62
     1
 10
1461.679729299154
 20
952.650246518622
 11
1553.919663658115
 21
950.971552705728
  0
LINE
  8
2
  6
CONTINUOUS
 62
     1
 10
1461.679729299154
 20
908.650246518622
 11
1553.919663658115
 21
910.328940331516
  0
LINE
  8
2
  6
CONTINUOUS
 62
     1
 10
1574.108726472254
 20
950.130907154114
 11
1658.349241378469
 21
943.043943281868
  0
LINE
  8
2
  6
CONTINUOUS
 62
     1
 10
1574.108726472253
 20
911.169585883130
 11
1658.349241378469
 21
918.256549755376
  0
LINE
  8
2
  6
CONTINUOUS
 62
     1
 10
1777.860605957651
 20
474.985447815158
 11
1777.860605957650
 21
414.165537888323
  0
LINE
  8
2
  6
CONTINUOUS
 62
     1
 10
1773.860605957650
 20
474.985447815158
 11
1773.860605957650
 21
414.555329071617
  0
LINE
  8
2
  6
CONTINUOUS
 62
     1
 10
1787.860605957650
 20
484.985447815157
 11
1787.860605957650
 21
413.191059930086
  0
LINE
  8
2
  6
CONTINUOUS
 62
     1
 10
1763.860605957650
 20
484.985447815158
 11
1763.860605957650
 21
415.529807029854
  0
LINE
  8
2
  6
CONTINUOUS
 62
     1
 10
1787.860605957650
 20
484.985447815157
 11
1763.860605957650
 21
484.985447815158
  0
LINE
  8
2
  6
CONTINUOUS
 62
     1
 10
1777.860605957650
 20
474.985447815158
 11
1773.860605957650
 21
474.985447815158
  0
LINE
  8
2
  6
CONTINUOUS
 62
     1
 10
1777.860605957650
 20
414.165537888323
 11
1787.860605957650
 21
413.191059930086
  0
LINE
  8
2
  6
CONTINUOUS
 62
     1
 10
1763.860605957650
 20
415.529807029854
 11
1773.860605957650
 21
414.555329071617
  0
LINE
  8
2
  6
DOT
 62
     3
 10
838.994418462730
 20
1009.194265003499
 11
838.994418462729
 21
948.374355076664
  0
LINE
  8
2
  6
DOT
 62
     3
 10
834.994418462728
 20
1009.194265003499
 11
834.994418462728
 21
948.764146259959
  0
LINE
  8
2
  6
DOT
 62
     3
 10
848.994418462729
 20
1019.194265003499
 11
848.994418462729
 21
947.399877118428
  0
LINE
  8
2
  6
DOT
 62
     3
 10
824.994418462729
 20
1019.194265003499
 11
824.994418462728
 21
949.738624218196
  0
LINE
  8
2
  6
DOT
 62
     3
 10
848.994418462729
 20
1019.194265003499
 11
824.994418462728
 21
1019.194265003499
  0
LINE
  8
2
  6
DOT
 62
     3
 10
838.994418462729
 20
1009.194265003499
 11
834.994418462728
 21
1009.194265003499
  0
LINE
  8
2
  6
DOT
 62
     3
 10
838.994418462729
 20
948.374355076664
 11
848.994418462729
 21
947.399877118428
  0
LINE
  8
2
  6
DOT
 62
     3
 10
824.994418462728
 20
949.738624218196
 11
834.994418462728
 21
948.764146259959
  0
LINE
  8
2
  6
DOT
 62
     3
 10
838.994418462730
 20
859.194265003499
 11
838.994418462729
 21
920.014174930334
  0
LINE
  8
2
  6
DOT
 62
     3
 10
834.994418462728
 20
859.194265003499
 11
834.994418462728
 21
919.624383747039
  0
LINE
  8
2
  6
DOT
 62
     3
 10
848.994418462729
 20
849.194265003499
 11
848.994418462729
 21
920.988652888571
  0
LINE
  8
2
  6
DOT
 62
     3
 10
824.994418462729
 20
849.194265003499
 11
824.994418462728
 21
918.649905788803
  0
LINE
  8
2
  6
DOT
 62
     3
 10
848.994418462729
 20
849.194265003499
 11
824.994418462728
 21
849.194265003499
  0
LINE
  8
2
  6
DOT
 62
     3
 10
838.994418462729
 20
859.194265003499
 11
834.994418462728
 21
859.194265003499
  0
LINE
  8
2
  6
DOT
 62
     3
 10
838.994418462729
 20
920.014174930334
 11
848.994418462729
 21
920.988652888571
  0
LINE
  8
2
  6
DOT
 62
     3
 10
824.994418462728
 20
918.649905788803
 11
834.994418462728
 21
919.624383747039
  0
LINE
  8
2
  6
DOT
 62
     3
 10
1876.059485838074
 20
496.680549184088
 11
1876.059485838073
 21
435.860639257253
  0
LINE
  8
2
  6
DOT
 62
     3
 10
1872.059485838072
 20
496.680549184088
 11
1872.059485838072
 21
436.250430440548
  0
LINE
  8
2
  6
DOT
 62
     3
 10
1886.059485838073
 20
506.680549184088
 11
1886.059485838073
 21
434.886161299017
  0
LINE
  8
2
  6
DOT
 62
     3
 10
1862.059485838073
 20
506.680549184088
 11
1862.059485838072
 21
437.224908398784
  0
LINE
  8
2
  6
DOT
 62
     3
 10
1886.059485838073
 20
506.680549184088
 11
1862.059485838072
 21
506.680549184088
  0
LINE
  8
2
  6
DOT
 62
     3
 10
1876.059485838073
 20
496.680549184088
 11
1872.059485838072
 21
496.680549184088
  0
LINE
  8
2
  6
DOT
 62
     3
 10
1876.059485838073
 20
435.860639257253
 11
1886.059485838073
 21
434.886161299017
  0
LINE
  8
2
  6
DOT
 62
     3
 10
1862.059485838072
 20
437.224908398784
 11
1872.059485838072
 21
436.250430440548
  0
LINE
  8
2
  6
CONTINUOUS
 62
     3
 10
509.192992253300
 20
902.194265003499
 11
509.192992253300
 21
832.636322898310
  0
LINE
  8
2
  6
CONTINUOUS
 62
     3
 10
594.192992253300
 20
879.507071733341
 11
594.192992253300
 21
832.636322898310
  0
LINE
  8
2
  6
CONTINUOUS
 62
     3
 10
509.192992253300
 20
834.636322898310
 11
594.192992253300
 21
834.636322898310
  0
LINE
  8
2
  6
CONTINUOUS
 62
     3
 10
509.192992253300
 20
834.636322898310
 11
514.022621384745
 21
835.930418123822
  0
LINE
  8
2
  6
CONTINUOUS
 62
     3
 10
509.192992253300
 20
834.636322898310
 11
514.022621384745
 21
833.342227672797
  0
LINE
  8
2
  6
CONTINUOUS
 62
     3
 10
589.363363121854
 20
833.342227672797
 11
594.192992253300
 21
834.636322898310
  0
LINE
  8
2
  6
CONTINUOUS
 62
     3
 10
589.363363121854
 20
835.930418123822
 11
594.192992253300
 21
834.636322898310
  0
TEXT
  8
2
 62
     3
 10
544.192993164063
 20
836.636291503906
 40
15.000000000000
 41
0.500000000000
  1
85
 50
0.000000000000
 51
0.000000000000
  7
STANDARD
  0
LINE
  8
2
  6
CONTINUOUS
 62
     1
 10
410.427621188330
 20
438.082923781900
 11
416.379549550797
 21
438.082923781900
  0
LINE
  8
2
  6
CONTINUOUS
 62
     1
 10
410.427621188330
 20
438.182923781900
 11
416.313003034588
 21
438.182923781900
  0
LINE
  8
2
  6
CONTINUOUS
 62
     1
 10
410.427621188330
 20
438.282923781900
 11
416.243976380422
 21
438.282923781900
  0
LINE
  8
2
  6
CONTINUOUS
 62
     1
 10
410.427621188330
 20
438.382923781900
 11
416.172380188053
 21
438.382923781900
  0
LINE
  8
2
  6
CONTINUOUS
 62
     1
 10
410.427621188330
 20
438.482923781901
 11
416.098117128653
 21
438.482923781901
  0
LINE
  8
2
  6
CONTINUOUS
 62
     1
 10
410.427621188330
 20
438.582923781901
 11
416.021080981118
 21
438.582923781901
  0
LINE
  8
2
  6
CONTINUOUS
 62
     1
 10
410.427621188330
 20
438.682923781901
 11
415.941155508334
 21
438.682923781901
  0
LINE
  8
2
  6
CONTINUOUS
 62
     1
 10
410.427621188330
 20
438.782923781901
 11
415.858213139690
 21
438.782923781901
  0
LINE
  8
2
  6
CONTINUOUS
 62
     1
 10
410.427621188330
 20
438.882923781901
 11
415.772113417391
 21
438.882923781901
  0
LINE
  8
2
  6
CONTINUOUS
 62
     1
 10
410.427621188330
 20
438.982923781901
 11
415.682701152595
 21
438.982923781901
  0
LINE
  8
2
  6
CONTINUOUS
 62
     1
 10
410.427621188330
 20
439.082923781901
 11
415.589804222196
 21
439.082923781901
  0
LINE
  8
2
  6
CONTINUOUS
 62
     1
 10
410.427621188330
 20
439.182923781901
 11
415.493230916631
 21
439.182923781901
  0
LINE
  8
2
  6
CONTINUOUS
 62
     1
 10
410.427621188330
 20
439.282923781901
 11
415.392766721320
 21
439.282923781901
  0
LINE
  8
2
  6
CONTINUOUS
 62
     1
 10
410.427621188330
 20
439.382923781901
 11
415.288170376240
 21
439.382923781901
  0
LINE
  8
2
  6
CONTINUOUS
 62
     1
 10
410.427621188330
 20
439.482923781901
 11
415.179169004822
 21
439.482923781901
  0
LINE
  8
2
  6
CONTINUOUS
 62
     1
 10
410.427621188330
 20
439.582923781901
 11
415.065452027929
 21
439.582923781901
  0
LINE
  8
2
  6
CONTINUOUS
 62
     1
 10
410.427621188330
 20
439.682923781901
 11
414.946663469727
 21
439.682923781901
  0
LINE
  8
2
  6
CONTINUOUS
 62
     1
 10
410.427621188330
 20
439.782923781901
 11
414.822392102197
 21
439.782923781901
  0
LINE
  8
2
  6
CONTINUOUS
 62
     1
 10
410.427621188330
 20
439.882923781901
 11
414.692158634489
 21
439.882923781901
  0
LINE
  8
2
  6
CONTINUOUS
 62
     1
 10
410.427621188330
 20
439.982923781901
 11
414.555398783358
 21
439.982923781901
  0
LINE
  8
2
  6
CONTINUOUS
 62
     1
 10
410.427621188330
 20
440.082923781901
 11
414.411440476191
 21
440.082923781901
  0
LINE
  8
2
  6
CONTINUOUS
 62
     1
 10
410.427621188330
 20
440.182923781901
 11
414.259472485373
 21
440.182923781901
  0
LINE
  8
2
  6
CONTINUOUS
 62
     1
 10
410.427621188330
 20
440.282923781901
 11
414.098500184833
 21
440.282923781901
  0
LINE
  8
2
  6
CONTINUOUS
 62
     1
 10
410.427621188330
 20
440.382923781901
 11
413.927281293439
 21
440.382923781901
  0
LINE
  8
2
  6
CONTINUOUS
 62
     1
 10
410.427621188330
 20
440.482923781901
 11
413.744229259177
 21
440.482923781901
  0
LINE
  8
2
  6
CONTINUOUS
 62
     1
 10
410.427621188330
 20
440.582923781901
 11
413.547261766975
 21
440.582923781901
  0
LINE
  8
2
  6
CONTINUOUS
 62
     1
 10
410.427621188330
 20
440.682923781901
 11
413.333550572236
 21
440.682923781901
  0
LINE
  8
2
  6
CONTINUOUS
 62
     1
 10
410.427621188330
 20
440.782923781901
 11
413.099080308093
 21
440.782923781901
  0
LINE
  8
2
  6
CONTINUOUS
 62
     1
 10
410.427621188330
 20
440.882923781901
 11
412.837800034990
 21
440.882923781901
  0
LINE
  8
2
  6
CONTINUOUS
 62
     1
 10
410.427621188330
 20
440.982923781901
 11
412.539783662479
 21
440.982923781901
  0
LINE
  8
2
  6
CONTINUOUS
 62
     1
 10
410.427621188330
 20
441.082923781901
 11
412.186455620994
 21
441.082923781901
  0
LINE
  8
2
  6
CONTINUOUS
 62
     1
 10
410.427621188330
 20
441.182923781901
 11
411.733671266176
 21
441.182923781901
  0
LINE
  8
2
  6
CONTINUOUS
 62
     1
 10
410.427621188330
 20
441.282923781901
 11
410.973547053409
 21
441.282923781901
  0
LINE
  8
2
  6
CONTINUOUS
 62
     1
 10
410.427621188330
 20
437.982923781900
 11
416.443698231356
 21
437.982923781900
  0
LINE
  8
2
  6
CONTINUOUS
 62
     1
 10
410.427621188330
 20
437.882923781900
 11
416.505524999950
 21
437.882923781900
  0
LINE
  8
2
  6
CONTINUOUS
 62
     1
 10
410.427621188330
 20
437.782923781900
 11
416.565100027315
 21
437.782923781900
  0
LINE
  8
2
  6
CONTINUOUS
 62
     1
 10
410.427621188330
 20
437.682923781900
 11
416.622488277676
 21
437.682923781900
  0
LINE
  8
2
  6
CONTINUOUS
 62
     1
 10
410.427621188330
 20
437.582923781900
 11
416.677749987830
 21
437.582923781900
  0
LINE
  8
2
  6
CONTINUOUS
 62
     1
 10
410.427621188330
 20
437.482923781900
 11
416.730941088670
 21
437.482923781900
  0
LINE
  8
2
  6
CONTINUOUS
 62
     1
 10
410.427621188330
 20
437.382923781900
 11
416.782113577318
 21
437.382923781900
  0
LINE
  8
2
  6
CONTINUOUS
 62
     1
 10
410.427621188330
 20
437.282923781900
 11
416.831315846680
 21
437.282923781900
  0
LINE
  8
2
  6
CONTINUOUS
 62
     1
 10
410.427621188330
 20
437.182923781900
 11
416.878592978151
 21
437.182923781900
  0
LINE
  8
2
  6
CONTINUOUS
 62
     1
 10
410.427621188330
 20
437.082923781900
 11
416.923987002287
 21
437.082923781900
  0
LINE
  8
2
  6
CONTINUOUS
 62
     1
 10
410.427621188330
 20
436.982923781900
 11
416.967537131553
 21
436.982923781900
  0
LINE
  8
2
  6
CONTINUOUS
 62
     1
 10
410.427621188330
 20
436.882923781900
 11
417.009279968615
 21
436.882923781900
  0
LINE
  8
2
  6
CONTINUOUS
 62
     1
 10
410.427621188330
 20
436.782923781900
 11
417.049249693146
 21
436.782923781900
  0
LINE
  8
2
  6
CONTINUOUS
 62
     1
 10
410.427621188330
 20
436.682923781900
 11
417.087478229699
 21
436.682923781900
  0
LINE
  8
2
  6
CONTINUOUS
 62
     1
 10
410.427621188330
 20
436.582923781900
 11
417.123995398837
 21
436.582923781900
  0
LINE
  8
2
  6
CONTINUOUS
 62
     1
 10
410.427621188330
 20
436.482923781900
 11
417.158829053404
 21
436.482923781900
  0
LINE
  8
2
  6
CONTINUOUS
 62
     1
 10
410.427621188330
 20
436.382923781900
 11
417.192005201565
 21
436.382923781900
  0
LINE
  8
2
  6
CONTINUOUS
 62
     1
 10
410.427621188330
 20
436.282923781900
 11
417.223548118057
 21
436.282923781900
  0
LINE
  8
2
  6
CONTINUOUS
 62
     1
 10
410.427621188330
 20
436.182923781900
 11
417.253480444854
 21
436.182923781900
  0
LINE
  8
2
  6
CONTINUOUS
 62
     1
 10
410.427621188330
 20
436.082923781900
 11
417.281823282341
 21
436.082923781900
  0
LINE
  8
2
  6
CONTINUOUS
 62
     1
 10
410.427621188330
 20
435.982923781900
 11
417.308596271938
 21
435.982923781900
  0
LINE
  8
2
  6
CONTINUOUS
 62
     1
 10
410.427621188330
 20
435.882923781900
 11
417.333817670976
 21
435.882923781900
  0
LINE
  8
2
  6
CONTINUOUS
 62
     1
 10
410.427621188330
 20
435.782923781900
 11
417.357504420578
 21
435.782923781900
  0
LINE
  8
2
  6
CONTINUOUS
 62
     1
 10
410.427621188330
 20
435.682923781900
 11
417.379672207150
 21
435.682923781900
  0
LINE
  8
2
  6
CONTINUOUS
 62
     1
 10
410.427621188330
 20
435.582923781900
 11
417.400335518055
 21
435.582923781900
  0
LINE
  8
2
  6
CONTINUOUS
 62
     1
 10
410.427621188330
 20
435.482923781900
 11
417.419507691959
 21
435.482923781900
  0
LINE
  8
2
  6
CONTINUOUS
 62
     1
 10
410.427621188330
 20
435.382923781900
 11
417.437200964273
 21
435.382923781900
  0
LINE
  8
2
  6
CONTINUOUS
 62
     1
 10
410.427621188330
 20
435.282923781900
 11
417.453426508077
 21
435.282923781900
  0
LINE
  8
2
  6
CONTINUOUS
 62
     1
 10
410.427621188330
 20
435.182923781900
 11
417.468194470860
 21
435.182923781900
  0
LINE
  8
2
  6
CONTINUOUS
 62
     1
 10
410.427621188330
 20
435.082923781900
 11
417.481514007359
 21
435.082923781900
  0
LINE
  8
2
  6
CONTINUOUS
 62
     1
 10
410.427621188330
 20
434.982923781900
 11
417.493393308773
 21
434.982923781900
  0
LINE
  8
2
  6
CONTINUOUS
 62
     1
 10
410.427621188330
 20
434.882923781900
 11
417.503839628550
 21
434.882923781900
  0
LINE
  8
2
  6
CONTINUOUS
 62
     1
 10
410.427621188330
 20
434.782923781900
 11
417.512859304963
 21
434.782923781900
  0
LINE
  8
2
  6
CONTINUOUS
 62
     1
 10
410.427621188330
 20
434.682923781900
 11
417.520457780630
 21
434.682923781900
  0
LINE
  8
2
  6
CONTINUOUS
 62
     1
 10
410.427621188330
 20
434.582923781900
 11
417.526639619124
 21
434.582923781900
  0
LINE
  8
2
  6
CONTINUOUS
 62
     1
 10
410.427621188330
 20
434.482923781900
 11
417.531408518792
 21
434.482923781900
  0
LINE
  8
2
  6
CONTINUOUS
 62
     1
 10
410.427621188330
 20
434.382923781900
 11
417.534767323883
 21
434.382923781900
  0
LINE
  8
2
  6
CONTINUOUS
 62
     1
 10
410.427621188330
 20
434.282923781900
 11
417.536718033063
 21
434.282923781900
  0
LINE
  8
2
  6
CONTINUOUS
 62
     1
 10
403.317980571289
 20
434.182923781900
 11
410.427621188330
 21
434.182923781900
  0
LINE
  8
2
  6
CONTINUOUS
 62
     1
 10
403.318843412991
 20
434.082923781900
 11
410.427621188330
 21
434.082923781900
  0
LINE
  8
2
  6
CONTINUOUS
 62
     1
 10
403.321113381057
 20
433.982923781899
 11
410.427621188330
 21
433.982923781899
  0
LINE
  8
2
  6
CONTINUOUS
 62
     1
 10
403.324791824582
 20
433.882923781899
 11
410.427621188330
 21
433.882923781899
  0
LINE
  8
2
  6
CONTINUOUS
 62
     1
 10
403.329880933418
 20
433.782923781899
 11
410.427621188330
 21
433.782923781899
  0
LINE
  8
2
  6
CONTINUOUS
 62
     1
 10
403.336383744705
 20
433.682923781899
 11
410.427621188330
 21
433.682923781899
  0
LINE
  8
2
  6
CONTINUOUS
 62
     1
 10
403.344304151972
 20
433.582923781899
 11
410.427621188330
 21
433.582923781899
  0
LINE
  8
2
  6
CONTINUOUS
 62
     1
 10
403.353646916873
 20
433.482923781899
 11
410.427621188330
 21
433.482923781899
  0
LINE
  8
2
  6
CONTINUOUS
 62
     1
 10
403.364417683622
 20
433.382923781899
 11
410.427621188330
 21
433.382923781899
  0
LINE
  8
2
  6
CONTINUOUS
 62
     1
 10
403.376622996258
 20
433.282923781899
 11
410.427621188330
 21
433.282923781899
  0
LINE
  8
2
  6
CONTINUOUS
 62
     1
 10
403.390270318843
 20
433.182923781899
 11
410.427621188330
 21
433.182923781899
  0
LINE
  8
2
  6
CONTINUOUS
 62
     1
 10
403.405368058746
 20
433.082923781899
 11
410.427621188330
 21
433.082923781899
  0
LINE
  8
2
  6
CONTINUOUS
 62
     1
 10
403.421925593199
 20
432.982923781899
 11
410.427621188330
 21
432.982923781899
  0
LINE
  8
2
  6
CONTINUOUS
 62
     1
 10
403.439953299305
 20
432.882923781899
 11
410.427621188330
 21
432.882923781899
  0
LINE
  8
2
  6
CONTINUOUS
 62
     1
 10
403.459462587739
 20
432.782923781899
 11
410.427621188330
 21
432.782923781899
  0
LINE
  8
2
  6
CONTINUOUS
 62
     1
 10
403.480465940412
 20
432.682923781899
 11
410.427621188330
 21
432.682923781899
  0
LINE
  8
2
  6
CONTINUOUS
 62
     1
 10
403.502976952389
 20
432.582923781899
 11
410.427621188330
 21
432.582923781899
  0
LINE
  8
2
  6
CONTINUOUS
 62
     1
 10
403.527010378406
 20
432.482923781899
 11
410.427621188330
 21
432.482923781899
  0
LINE
  8
2
  6
CONTINUOUS
 62
     1
 10
403.552582184389
 20
432.382923781899
 11
410.427621188330
 21
432.382923781899
  0
LINE
  8
2
  6
CONTINUOUS
 62
     1
 10
403.579709604395
 20
432.282923781899
 11
410.427621188330
 21
432.282923781899
  0
LINE
  8
2
  6
CONTINUOUS
 62
     1
 10
403.608411203510
 20
432.182923781899
 11
410.427621188330
 21
432.182923781899
  0
LINE
  8
2
  6
CONTINUOUS
 62
     1
 10
403.638706947249
 20
432.082923781899
 11
410.427621188330
 21
432.082923781899
  0
LINE
  8
2
  6
CONTINUOUS
 62
     1
 10
403.670618278131
 20
431.982923781899
 11
410.427621188330
 21
431.982923781899
  0
LINE
  8
2
  6
CONTINUOUS
 62
     1
 10
403.704168200161
 20
431.882923781899
 11
410.427621188330
 21
431.882923781899
  0
LINE
  8
2
  6
CONTINUOUS
 62
     1
 10
403.739381372071
 20
431.782923781899
 11
410.427621188330
 21
431.782923781899
  0
LINE
  8
2
  6
CONTINUOUS
 62
     1
 10
403.776284210288
 20
431.682923781899
 11
410.427621188330
 21
431.682923781899
  0
LINE
  8
2
  6
CONTINUOUS
 62
     1
 10
403.814905002741
 20
431.582923781899
 11
410.427621188330
 21
431.582923781899
  0
LINE
  8
2
  6
CONTINUOUS
 62
     1
 10
403.855274034776
 20
431.482923781899
 11
410.427621188330
 21
431.482923781899
  0
LINE
  8
2
  6
CONTINUOUS
 62
     1
 10
403.897423728642
 20
431.382923781899
 11
410.427621188330
 21
431.382923781899
  0
LINE
  8
2
  6
CONTINUOUS
 62
     1
 10
403.941388798244
 20
431.282923781899
 11
410.427621188330
 21
431.282923781899
  0
LINE
  8
2
  6
CONTINUOUS
 62
     1
 10
403.987206421106
 20
431.182923781899
 11
410.427621188330
 21
431.182923781899
  0
LINE
  8
2
  6
CONTINUOUS
 62
     1
 10
404.034916429814
 20
431.082923781899
 11
410.427621188330
 21
431.082923781899
  0
LINE
  8
2
  6
CONTINUOUS
 62
     1
 10
404.084561525578
 20
430.982923781899
 11
410.427621188330
 21
430.982923781899
  0
LINE
  8
2
  6
CONTINUOUS
 62
     1
 10
404.136187516987
 20
430.882923781899
 11
410.427621188330
 21
430.882923781899
  0
LINE
  8
2
  6
CONTINUOUS
 62
     1
 10
404.189843587566
 20
430.782923781899
 11
410.427621188330
 21
430.782923781899
  0
LINE
  8
2
  6
CONTINUOUS
 62
     1
 10
404.245582596387
 20
430.682923781899
 11
410.427621188330
 21
430.682923781899
  0
LINE
  8
2
  6
CONTINUOUS
 62
     1
 10
404.303461416741
 20
430.582923781899
 11
410.427621188330
 21
430.582923781899
  0
LINE
  8
2
  6
CONTINUOUS
 62
     1
 10
404.363541318833
 20
430.482923781899
 11
410.427621188330
 21
430.482923781899
  0
LINE
  8
2
  6
CONTINUOUS
 62
     1
 10
404.425888403599
 20
430.382923781899
 11
410.427621188330
 21
430.382923781899
  0
LINE
  8
2
  6
CONTINUOUS
 62
     1
 10
404.490574096131
 20
430.282923781899
 11
410.427621188330
 21
430.282923781899
  0
LINE
  8
2
  6
CONTINUOUS
 62
     1
 10
404.557675708969
 20
430.182923781899
 11
410.427621188330
 21
430.182923781899
  0
LINE
  8
2
  6
CONTINUOUS
 62
     1
 10
404.627277087645
 20
430.082923781899
 11
410.427621188330
 21
430.082923781899
  0
LINE
  8
2
  6
CONTINUOUS
 62
     1
 10
404.699469353573
 20
429.982923781899
 11
410.427621188330
 21
429.982923781899
  0
LINE
  8
2
  6
CONTINUOUS
 62
     1
 10
404.774351762793
 20
429.882923781899
 11
410.427621188330
 21
429.882923781899
  0
LINE
  8
2
  6
CONTINUOUS
 62
     1
 10
404.852032703390
 20
429.782923781899
 11
410.427621188330
 21
429.782923781899
  0
LINE
  8
2
  6
CONTINUOUS
 62
     1
 10
404.932630859943
 20
429.682923781899
 11
410.427621188330
 21
429.682923781899
  0
LINE
  8
2
  6
CONTINUOUS
 62
     1
 10
405.016276580494
 20
429.582923781898
 11
410.427621188330
 21
429.582923781898
  0
LINE
  8
2
  6
CONTINUOUS
 62
     1
 10
405.103113490859
 20
429.482923781898
 11
410.427621188330
 21
429.482923781898
  0
LINE
  8
2
  6
CONTINUOUS
 62
     1
 10
405.193300413281
 20
429.382923781898
 11
410.427621188330
 21
429.382923781898
  0
LINE
  8
2
  6
CONTINUOUS
 62
     1
 10
405.287013662775
 20
429.282923781898
 11
410.427621188330
 21
429.282923781898
  0
LINE
  8
2
  6
CONTINUOUS
 62
     1
 10
405.384449816319
 20
429.182923781898
 11
410.427621188330
 21
429.182923781898
  0
LINE
  8
2
  6
CONTINUOUS
 62
     1
 10
405.485829079879
 20
429.082923781898
 11
410.427621188330
 21
429.082923781898
  0
LINE
  8
2
  6
CONTINUOUS
 62
     1
 10
405.591399419343
 20
428.982923781898
 11
410.427621188330
 21
428.982923781898
  0
LINE
  8
2
  6
CONTINUOUS
 62
     1
 10
405.701441678990
 20
428.882923781898
 11
410.427621188330
 21
428.882923781898
  0
LINE
  8
2
  6
CONTINUOUS
 62
     1
 10
405.816275993033
 20
428.782923781898
 11
410.427621188330
 21
428.782923781898
  0
LINE
  8
2
  6
CONTINUOUS
 62
     1
 10
405.936269914396
 20
428.682923781898
 11
410.427621188330
 21
428.682923781898
  0
LINE
  8
2
  6
CONTINUOUS
 62
     1
 10
406.061848860145
 20
428.582923781898
 11
410.427621188330
 21
428.582923781898
  0
LINE
  8
2
  6
CONTINUOUS
 62
     1
 10
406.193509737597
 20
428.482923781898
 11
410.427621188330
 21
428.482923781898
  0
LINE
  8
2
  6
CONTINUOUS
 62
     1
 10
406.331839024578
 20
428.382923781898
 11
410.427621188330
 21
428.382923781898
  0
LINE
  8
2
  6
CONTINUOUS
 62
     1
 10
406.477537228642
 20
428.282923781898
 11
410.427621188330
 21
428.282923781898
  0
LINE
  8
2
  6
CONTINUOUS
 62
     1
 10
406.631452719431
 20
428.182923781898
 11
410.427621188330
 21
428.182923781898
  0
LINE
  8
2
  6
CONTINUOUS
 62
     1
 10
406.794629748766
 20
428.082923781898
 11
410.427621188330
 21
428.082923781898
  0
LINE
  8
2
  6
CONTINUOUS
 62
     1
 10
406.968378705412
 20
427.982923781898
 11
410.427621188330
 21
427.982923781898
  0
LINE
  8
2
  6
CONTINUOUS
 62
     1
 10
407.154382683225
 20
427.882923781898
 11
410.427621188330
 21
427.882923781898
  0
LINE
  8
2
  6
CONTINUOUS
 62
     1
 10
407.354866387344
 20
427.782923781898
 11
410.427621188330
 21
427.782923781898
  0
LINE
  8
2
  6
CONTINUOUS
 62
     1
 10
407.572878849228
 20
427.682923781898
 11
410.427621188330
 21
427.682923781898
  0
LINE
  8
2
  6
CONTINUOUS
 62
     1
 10
407.812800816231
 20
427.582923781898
 11
410.427621188330
 21
427.582923781898
  0
LINE
  8
2
  6
CONTINUOUS
 62
     1
 10
408.081343853056
 20
427.482923781898
 11
410.427621188330
 21
427.482923781898
  0
LINE
  8
2
  6
CONTINUOUS
 62
     1
 10
408.389791683759
 20
427.382923781898
 11
410.427621188330
 21
427.382923781898
  0
LINE
  8
2
  6
CONTINUOUS
 62
     1
 10
408.760143798564
 20
427.282923781898
 11
410.427621188330
 21
427.282923781898
  0
LINE
  8
2
  6
CONTINUOUS
 62
     1
 10
409.249396845914
 20
427.182923781898
 11
410.427621188330
 21
427.182923781898
  0
LINE
  8
2
  6
DOT
 62
     3
 10
392.192992253301
 20
584.194265003499
 11
392.192992253301
 21
1284.194265003499
  0
LINE
  8
2
  6
DOT
 62
     3
 10
392.427621188330
 20
449.183925061302
 11
392.427621188330
 21
419.204604945697
  0
LINE
  8
2
  6
DOT
 62
     3
 10
443.974801174320
 20
451.657592006634
 11
443.659287810637
 21
447.695604695806
  0
ARC
  8
2
  6
CONTINUOUS
 62
     1
 10
1077.295679262005
 20
-1282.486648843668
 40
1836.138338303207
 50
83.204266392761
 51
84.154748509702
  0
ARC
  8
2
  6
CONTINUOUS
 62
     1
 10
1223.326561143524
 20
-53.036139570072
 40
598.544483063673
 50
86.075536901338
 51
88.047630749031
  0
ARC
  8
2
  6
CONTINUOUS
 62
     1
 10
1241.459550052174
 20
473.938261762199
 40
71.287922322210
 50
90.595867076334
 51
101.558040408744
  0
ARC
  8
2
  6
CONTINUOUS
 62
     1
 10
1235.584916149204
 20
500.432702577243
 40
44.155948110787
 50
100.977921976298
 51
117.342236795387
  0
ARC
  8
2
  6
CONTINUOUS
 62
     1
 10
1223.760142116983
 20
523.048553887521
 40
18.635954884980
 50
116.985180275750
 51
134.793652357027
  0
ARC
  8
2
  6
CONTINUOUS
 62
     1
 10
1216.935336786114
 20
529.444271957477
 40
9.294900452054
 50
132.715387526450
 51
168.670883890032
  0
LINE
  8
2
  6
CONTINUOUS
 62
     1
 10
1240.718180260169
 20
545.215374989777
 11
1240.718180260169
 21
515.236054874172
  0
ARC
  8
2
  6
CONTINUOUS
 62
     1
 10
1077.295679262005
 20
2342.938078707617
 40
1836.138338303207
 50
275.845251490298
 51
276.795733607239
  0
ARC
  8
2
  6
CONTINUOUS
 62
     1
 10
1223.326561143524
 20
1113.487569434021
 40
598.544483063673
 50
271.952369250969
 51
273.924463098662
  0
ARC
  8
2
  6
CONTINUOUS
 62
     1
 10
1241.459550052174
 20
586.513168101749
 40
71.287922322210
 50
258.441959591256
 51
269.404132923666
  0
ARC
  8
2
  6
CONTINUOUS
 62
     1
 10
1235.584916149204
 20
560.018727286706
 40
44.155948110787
 50
242.657763204613
 51
259.022078023703
  0
ARC
  8
2
  6
CONTINUOUS
 62
     1
 10
1223.760142116983
 20
537.402875976428
 40
18.635954884980
 50
225.206347642973
 51
243.014819724251
  0
ARC
  8
2
  6
CONTINUOUS
 62
     1
 10
1216.935336786114
 20
531.007157906472
 40
9.294900452054
 50
191.329116109968
 51
227.284612473549
  0
LINE
  8
2
  6
CONTINUOUS
 62
     1
 10
1243.718180260169
 20
545.215374989777
 11
1243.718180260169
 21
515.236054874172
  0
ARC
  8
2
  6
CONTINUOUS
 62
     1
 10
1132.405613722434
 20
1687.327309673285
 40
1178.834107579478
 50
277.906675950947
 51
281.018836256718
  0
ARC
  8
2
  6
CONTINUOUS
 62
     1
 10
1132.405613722434
 20
-626.875879809336
 40
1178.834107579478
 50
78.981163743282
 51
82.093324049053
  0
LINE
  8
2
  6
CONTINUOUS
 62
     1
 10
1207.821547863531
 20
531.270203469940
 11
1207.821547863531
 21
529.181226394009
  0
LINE
  8
2
  6
CONTINUOUS
 62
     1
 10
871.807006623533
 20
384.194265003499
 11
785.861909057573
 21
390.431447824732
  0
LINE
  8
2
  6
CONTINUOUS
 62
     1
 10
785.861909057572
 20
390.431447824732
 11
569.361909057573
 21
380.431447824732
  0
LINE
  8
2
  6
CONTINUOUS
 62
     1
 10
569.361909057571
 20
380.431447824731
 11
508.318429536883
 21
372.839437731335
  0
LINE
  8
2
  6
CONTINUOUS
 62
     1
 10
508.318429536886
 20
372.839437731335
 11
428.793580809520
 21
364.194265003499
  0
LINE
  8
2
  6
CONTINUOUS
 62
     1
 10
787.663013643365
 20
437.194265003499
 11
787.663013643365
 21
431.194265003499
  0
LINE
  8
2
  6
CONTINUOUS
 62
     1
 10
917.439901806172
 20
437.194265003499
 11
917.439901806171
 21
431.194265003499
  0
CIRCLE
  8
2
  6
DOT
 62
     3
 10
836.994418462730
 20
434.194265003499
 40
2.000000000000
  0
LINE
  8
2
  6
DOT
 62
     3
 10
824.994418462729
 20
435.694265003499
 11
848.994418462729
 21
435.694265003499
  0
LINE
  8
2
  6
DOT
 62
     3
 10
824.994418462730
 20
432.694265003499
 11
848.994418462730
 21
432.694265003499
  0
LINE
  8
2
  6
DOT
 62
     3
 10
824.994418462729
 20
435.694265003499
 11
824.994418462730
 21
432.694265003499
  0
LINE
  8
2
  6
DOT
 62
     3
 10
848.994418462729
 20
435.694265003499
 11
848.994418462730
 21
432.694265003499
  0
LINE
  8
2
  6
CONTINUOUS
 62
     1
 10
824.994418462730
 20
429.694265003499
 11
848.994418462730
 21
429.694265003499
  0
LINE
  8
2
  6
CONTINUOUS
 62
     1
 10
824.994418462729
 20
438.694265003499
 11
848.994418462729
 21
438.694265003499
  0
LINE
  8
2
  6
CONTINUOUS
 62
     1
 10
787.663013643365
 20
431.194265003499
 11
817.266645675596
 21
431.194265003499
  0
LINE
  8
2
  6
CONTINUOUS
 62
     1
 10
787.663013643365
 20
437.194265003499
 11
817.266645675596
 21
437.194265003499
  0
LINE
  8
2
  6
CONTINUOUS
 62
     1
 10
824.994418462729
 20
438.694265003499
 11
817.266645675596
 21
437.235587459000
  0
LINE
  8
2
  6
CONTINUOUS
 62
     1
 10
824.994418462729
 20
429.694265003499
 11
817.266645675596
 21
431.152942547998
  0
LINE
  8
2
  6
CONTINUOUS
 62
     1
 10
848.994418462729
 20
429.694265003499
 11
856.722191249863
 21
431.152942547998
  0
LINE
  8
2
  6
CONTINUOUS
 62
     1
 10
848.994418462729
 20
438.694265003499
 11
856.722191249863
 21
437.235587459000
  0
LINE
  8
2
  6
CONTINUOUS
 62
     1
 10
856.941109096594
 20
437.194265003499
 11
917.439901806172
 21
437.194265003499
  0
LINE
  8
2
  6
CONTINUOUS
 62
     1
 10
856.941109096593
 20
431.194265003499
 11
917.439901806172
 21
431.194265003499
  0
LINE
  8
2
  6
CONTINUOUS
 62
     1
 10
802.439901806172
 20
437.194265003499
 11
802.439901806172
 21
431.194265003499
  0
LINE
  8
2
  6
DOT
 62
     3
 10
516.936381367018
 20
439.194265003499
 11
865.635427441043
 21
439.194265003499
  0
LINE
  8
2
  6
CONTINUOUS
 62
     1
 10
871.807006623533
 20
534.194265003499
 11
871.807006623533
 21
384.194265003499
  0
LINE
  8
2
  6
DOT
 62
     3
 10
865.635427441043
 20
439.194265003499
 11
865.635427441043
 21
436.194265003499
  0
LINE
  8
2
  6
DOT
 62
     3
 10
353.192992253300
 20
836.694265003499
 11
506.427621188330
 21
836.694265003499
  0
LINE
  8
2
  6
DOT
 62
     3
 10
353.192992253300
 20
833.694265003499
 11
506.427621188330
 21
833.694265003499
  0
LINE
  8
2
  6
DOT
 62
     3
 10
353.192992253300
 20
762.694265003499
 11
506.427621188330
 21
762.694265003499
  0
LINE
  8
2
  6
DOT
 62
     3
 10
353.192992253300
 20
759.694265003499
 11
506.427621188330
 21
759.694265003499
  0
LINE
  8
2
  6
DOT
 62
     3
 10
353.192992253300
 20
688.694265003499
 11
506.427621188330
 21
688.694265003499
  0
LINE
  8
2
  6
DOT
 62
     3
 10
353.192992253300
 20
685.694265003499
 11
506.427621188330
 21
685.694265003499
  0
LINE
  8
2
  6
DOT
 62
     3
 10
353.192992253300
 20
614.694265003499
 11
506.427621188330
 21
614.694265003499
  0
LINE
  8
2
  6
DOT
 62
     3
 10
353.192992253300
 20
611.694265003499
 11
506.427621188330
 21
611.694265003499
  0
LINE
  8
2
  6
DOT
 62
     3
 10
506.427621188330
 20
614.694265003499
 11
506.427621188330
 21
611.694265003499
  0
LINE
  8
2
  6
DOT
 62
     3
 10
509.192992253300
 20
685.694265003499
 11
509.192992253300
 21
688.694265003499
  0
LINE
  8
2
  6
DOT
 62
     3
 10
506.427621188330
 20
688.694265003499
 11
506.427621188330
 21
685.694265003499
  0
LINE
  8
2
  6
DOT
 62
     3
 10
506.427621188330
 20
762.694265003499
 11
506.427621188330
 21
759.694265003499
  0
LINE
  8
2
  6
DOT
 62
     3
 10
506.427621188330
 20
836.694265003499
 11
506.427621188330
 21
833.694265003499
  0
LINE
  8
2
  6
DOT
 62
     3
 10
506.427621188330
 20
912.194265003499
 11
506.427621188330
 21
909.194265003499
  0
ENDSEC
  0
EOF
